Sound will begin in 5 seconds

Into The Fall

01234567891011121314151617181920212223
E
B
G
D
A
E
B
0 1 2 3 4 5 6 7 8 9 10 11 12 13 14 15 16 17 18 19 20 21 22 23
Song Science #1: How Pros Use 6 Chords to Write Hit Songs
(/) Slide Up  (\) Slide Down  (h) Hammer On  (p) Pull Off  (b) Bend (r) Release (v) Vibrato

Stave 1:

B |--------------------------------------------------------------------------------
Gb|--------------------------------------------------------------------------------
D |----------12------12------------7-----7-----------9-----9-----------4-----0-----
A |--------------------------------------------------------------------------------
E |------10------10------10-----5-----5-----5-----7-----7-----7-----2-----2--------
B |--12----------------------7-----------------8-----------------3--------------3--

Stave 2:

B |--------------------------------------------------------------------------------
Gb|--------------------------------------------------------------------------------
D |----------12------12------------7-----7-----------9-----9-----------9-----9-----
A |--------------------------------------------------------------------------------
E |------10------10------10-----5-----5-----5-----7-----7-----7-----7-----7-----7--
B |--12----------------------7-----------------8-----------------8-----------------

Stave 3:

B |--------------------------------------------------------------------------------
Gb|--------------------------------------------------------------------------------
D |----------12------12------------7-----7-----------9-----9-----------4-----0-----
A |--------------------------------------------------------------------------------
E |------10------10------10-----5-----5-----5-----7-----7-----7-----2-----2--------
B |--12----------------------7-----------------8-----------------3--------------3--

Stave 4:

B |--------------------------------------------------------------------------------
Gb|--------------------------------------------------------------------------------
D |----------12------12------------7-----7-----------9-----9-----------9-----9-----
A |--------------------------------------------------------------------------------
E |------10------10------10-----5-----5-----5-----7-----7-----7-----7-----7-----7--
B |--12----------------------7-----------------8-----------------8-----------------

Stave 5:

B |--------------0-----------------2-----------7-----7-----------7-----7-----
Gb|-----------------0--------0--------0-----------0-----0-----------0-----0--
D |--------0--------------0-----------------0-----------------0--------------
A |-----------2-----------------0--------------------------------------------
E |-----2--------------------------------------------------------------------
B |--0-----------------3-----------------8-----------------8-----------------

Stave 6:

B |--------------0-----------------2-----------7-----7-----7h8--7-----
Gb|-----------------0--------0--------0-----------0-----0----------8--
D |--------0--------------0-----------------0-------------------------
A |-----------2-----------------0-------------------------------------
E |-----2-------------------------------------------------------------
B |--0-----------------3-----------------8----------------------------

Stave 7:

B |--------------0-----------------2-----------7-----7-----------7-----7-----
Gb|-----------------0--------0--------0-----------0-----0-----------0-----0--
D |--------0--------------0-----------------0-----------------0--------------
A |-----------2-----------------0--------------------------------------------
E |-----2--------------------------------------------------------------------
B |--0-----------------3-----------------8-----------------8-----------------

Stave 8:

B |--------------0-----------------2-----------7-----7-----7h8--7-----
Gb|-----------------0--------0--------0-----------0-----0----------8--
D |--------0--------------0-----------------0-------------------------
A |-----------2-----------------0-------------------------------------
E |-----2-------------------------------------------------------------
B |--0-----------------3-----------------8----------------------------

Stave 9:

B |--------------------------------------------------------------------------------
Gb|--------------------------------------------------------------------------------
D |----------12------12------------7-----7-----------9-----9-----------4-----0-----
A |--------------------------------------------------------------------------------
E |------10------10------10-----5-----5-----5-----7-----7-----7-----2-----2--------
B |--12----------------------7-----------------8-----------------3--------------3--

Stave 10:

B |--------------------------------------------------------------------------------
Gb|--------------------------------------------------------------------------------
D |----------12------12------------7-----7-----------9-----9-----------9-----9-----
A |--------------------------------------------------------------------------------
E |------10------10------10-----5-----5-----5-----7-----7-----7-----7-----7-----7--
B |--12----------------------7-----------------8-----------------8-----------------

Stave 11:

B |--------------------------------------------------------------------------------
Gb|--------------------------------------------------------------------------------
D |----------12------12------------7-----7-----------9-----9-----------4-----0-----
A |--------------------------------------------------------------------------------
E |------10------10------10-----5-----5-----5-----7-----7-----7-----2-----2--------
B |--12----------------------7-----------------8-----------------3--------------3--

Stave 12:

B |--------------------------------------------------------------------------------
Gb|--------------------------------------------------------------------------------
D |----------12------12------------7-----7-----------9-----9-----------9-----9-----
A |--------------------------------------------------------------------------------
E |------10------10------10-----5-----5-----5-----7-----7-----7-----7-----7-----7--
B |--12----------------------7-----------------8-----------------8-----------------

Stave 13:

B |--------------0-----------------2-----------7-----7-----------7-----7-----
Gb|-----------------0--------0--------0-----------0-----0-----------0-----0--
D |--------0--------------0-----------------0-----------------0--------------
A |-----------2-----------------0--------------------------------------------
E |-----2--------------------------------------------------------------------
B |--0-----------------3-----------------8-----------------8-----------------

Stave 14:

B |--------------0-----------------2-----------7-----7-----7h8--7-----
Gb|-----------------0--------0--------0-----------0-----0----------8--
D |--------0--------------0-----------------0-------------------------
A |-----------2-----------------0-------------------------------------
E |-----2-------------------------------------------------------------
B |--0-----------------3-----------------8----------------------------

Stave 15:

B |--------------0-----------------2-----------7-----7-----------7-----7-----
Gb|-----------------0--------0--------0-----------0-----0-----------0-----0--
D |--------0--------------0-----------------0-----------------0--------------
A |-----------2-----------------0--------------------------------------------
E |-----2--------------------------------------------------------------------
B |--0-----------------3-----------------8-----------------8-----------------

Stave 16:

B |--------------0-----------------2-----------7-----7-----7h8--7-----
Gb|-----------------0--------0--------0-----------0-----0----------8--
D |--------0--------------0-----------------0-------------------------
A |-----------2-----------------0-------------------------------------
E |-----2-------------------------------------------------------------
B |--0-----------------3-----------------8----------------------------

Stave 17:

B |--------------0-----------------2-----------7-----7-----------7-----7-----
Gb|-----------------0--------0--------0-----------0-----0-----------0-----0--
D |--------0--------------0-----------------0-----------------0--------------
A |-----------2-----------------0--------------------------------------------
E |-----2--------------------------------------------------------------------
B |--0-----------------3-----------------8-----------------8-----------------

Stave 18:

B |--------------0-----------------2-----------7-----7-----7h8--7-----
Gb|-----------------0--------0--------0-----------0-----0----------8--
D |--------0--------------0-----------------0-------------------------
A |-----------2-----------------0-------------------------------------
E |-----2-------------------------------------------------------------
B |--0-----------------3-----------------8----------------------------

http://www.guitartabcreator.com
Guitar Tab Creator is intended to store guitar tab created through the tool. It currently does not support in-line text editing. Any text you place in here will be lost. If you need to comment on your tab, please use the "Tab Notes" section located below.