Banjo Tabs(And He Takes And He Took)

01234567891011121314151617181920212223
E
B
G
D
A
E
B
0 1 2 3 4 5 6 7 8 9 10 11 12 13 14 15 16 17 18 19 20 21 22 23
(/) Slide Up  (\) Slide Down  (h) Hammer On  (p) Pull Off  (b) Bend (r) Release (v) Vibrato

Stave 1:

G|--------------------0--------------------------|--|:-----0--------0--------0-----:|--|:-----2-----------------2-----:|--|:-----0--------0--------0-----:|-----2--------2-----
D|--------------------0-----------------------|-----|:--0--------0--------0--------:|--|:--1--------------------------:|--|:--0--------0--------0--------:|--1--------1--------
A|--------------0--2-----------------------|--------|:-----------------------------:|--|:-----------------------------:|--|:-----------------------------:|--------------------
E|-----0--0--2--------------------------------------|:-----------------------------:|--|:-----------------------------:|--|:-----------------------------:|--------------------
B|-----------------------------------|--------------|:--------0--------0--------0--:|--|:--------0--1--0--0--0-----0--:|--|:--------0--------0--------0--:|--------0--------0--

Stave 2:

G|-----2-----:|--------------|:-----0--------0--------0-----:|-----------------------0--------0--------------------------0--------0--------0--------------------
D|--1--------:|--------------|:--0--------0--------0--------:|--------------------0--------0--------------------------0--------0--------0-----------------------
A|-----------:|--------------|:-----------------------------:|--------------0--2--------------------------------0--2-----------------------------------------0--
E|-----------:|--------------|:-----------------------------:|--0--0--0--2--------------------------0--0--0--2-----------------------------------0--0--0--2-----
B|--------0--:|--------------|:--------0--------0--------0--:|--------------------------0--------0--------------------------0--------0--------0-----------------

Stave 3:

G|-----0--------0--------2--------2-----------0--------0--------0--------0--------0-----1-----
D|--0--------0--------1--------1--------------------------------------------------------------
A|-----------------------------------------0--------0--------0--------0--------0--------------
E|--------------------------------------0--------0--------2--------0--------2-----------------
B|--------0--------0--------0--------0--------------------------------------------------0-----

							http://www.guitartabcreator.com
Chords

Tab Notes
genre
Instruments
{"strings":[[["_",".",".",".",".","_",0,"_","_","_","_",".","_",".",".","|","|:",".",0,".",".",0,".",".",0,".",":|","|:",".",2,".",".",".",".",".",2,".",":|","|:",".",0,".",".",0,".",".",0,".",":|",".",2,".",".",2,"."],["_",".",".",".",".","_",0,"_","_","_","_",".","_",".","|",".","|:",0,".",".",0,".",".",0,".",".",":|","|:",1,".",".",".",".",".",".",".",".",":|","|:",0,".",".",0,".",".",0,".",".",":|",1,".",".",1,".","."],["_",".",".",".",0,2,"_","_","_","_","_",".","_","|",".",".","|:",".",".",".",".",".",".",".",".",".",":|","|:",".",".",".",".",".",".",".",".",".",":|","|:",".",".",".",".",".",".",".",".",".",":|",".",".",".",".",".","."],["_",0,0,2,".","_","_","_","_","_","_",".","_",".",".",".","|:",".",".",".",".",".",".",".",".",".",":|","|:",".",".",".",".",".",".",".",".",".",":|","|:",".",".",".",".",".",".",".",".",".",":|",".",".",".",".",".","."],["_",".",".",".",".","_","_","_","_","_","_","|","_",".",".",".","|:",".",".",0,".",".",0,".",".",0,":|","|:",".",".",0,1,0,0,0,".",0,":|","|:",".",".",0,".",".",0,".",".",0,":|",".",".",0,".",".",0]],[[".",2,".",":|",".",".",".",".","|:",".",0,".",".",0,".",".",0,".",":|",".",".",".",".",".",".",".",0,".",".",0,".",".",".",".",".",".",".",".",0,".",".",0,".",".",0,".",".",".",".",".","."],[1,".",".",":|",".",".",".",".","|:",0,".",".",0,".",".",0,".",".",":|",".",".",".",".",".",".",0,".",".",0,".",".",".",".",".",".",".",".",0,".",".",0,".",".",0,".",".",".",".",".",".","."],[".",".",".",":|",".",".",".",".","|:",".",".",".",".",".",".",".",".",".",":|",".",".",".",".",0,2,".",".",".",".",".",".",".",".",".",".",0,2,".",".",".",".",".",".",".",".",".",".",".",".",".",0],[".",".",".",":|",".",".",".",".","|:",".",".",".",".",".",".",".",".",".",":|",0,0,0,2,".",".",".",".",".",".",".",".",0,0,0,2,".",".",".",".",".",".",".",".",".",".",".",0,0,0,2,"."],[".",".",0,":|",".",".",".",".","|:",".",".",0,".",".",0,".",".",0,":|",".",".",".",".",".",".",".",".",0,".",".",0,".",".",".",".",".",".",".",".",0,".",".",0,".",".",0,".",".",".",".","."]],[[".",0,".",".",0,".",".",2,".",".",2,".",".",".",0,".",".",0,".",".",0,".",".",0,".",".",0,"_",1,"_"],[0,".",".",0,".",".",1,".",".",1,".",".",".",".",".",".",".",".",".",".",".",".",".",".",".",".",".","_","_","_"],[".",".",".",".",".",".",".",".",".",".",".",".",".",0,".",".",0,".",".",0,".",".",0,".",".",0,".","_","_","_"],[".",".",".",".",".",".",".",".",".",".",".",".",0,".",".",0,".",".",2,".",".",0,".",".",2,".",".","_","_","_"],[".",".",0,".",".",0,".",".",0,".",".",0,".",".",".",".",".",".",".",".",".",".",".",".",".",".",".","_",0,"_"]]],"numberofstrings":5,"notes":["G","D","A","E","B"],"capo":0,"stringnotes":["G2","D2","A1","E1","B0"],"comments":["Stave 1:","Stave 2:","Stave 3:","Stave 4:"],"timing":[["W","W","W","W","W","W","W","W",null,"W",null,null,null,"W","W","W","W","W","W","W","W","W",null,null,"W","W","W","W","W","W","W","W","W","W","W","W","W","W","W","W","W","W","W",null,"W","W","W","W","W","W"],["W","W","W",null,null,null,null,null,null,"W","W","W","W","W","W","W","W","W",null,"W","W","W","W","W","W","W","W","W","W","W","W","W","W","W","W","W","W","W","W","W","W","W","W","W","W","W","W","W","W","W","W"],["W","W","W","W","W","W","W","W","W","W","W","W","W","W","W","W","W","W","W","W","W","W","W","W","W","W","W","W","W",null,"W"],[]],"timingvisible":false,"tabcounter":30,"stave":2,"totalstaves":3,"instrument":"5bass","selectedtuning":"5bass","version":"13"}

Member for

2 months 3 weeks
About Me
i a banjo
Submitted by BanjoManVX on Thu, 2021-10-28 12:13