One Way Out - The Allman Brothers Band (Larkin Poe Version)

Chords
01234567891011121314151617181920212223
E
B
G
D
A
E
B
0 1 2 3 4 5 6 7 8 9 10 11 12 13 14 15 16 17 18 19 20 21 22 23
(/) Slide Up  (\) Slide Down  (h) Hammer On  (p) Pull Off  (b) Bend (r) Release (v) Vibrato

"A Position"

E|--------------------------------------
B|--------------------------------------
G|--------------------------------------
D|-----7--7--5-----7--7--5-----5--5--7--
A|--------------7-----------7-----------
E|--5-----------------------------------

"D" Position (Follows A Position)

E|--------------------------------------------------------------------------
B|--------------------------------------------------------------------------
G|-----7--7--5-----7--7--5-----5--5--7-----7--7--5-----7--7--5-----5--5-----
D|--------------7-----------7-----------------------7-----------7--------7--
A|--5-----------------------------------5-----------------------------------
E|--------------------------------------------------------------------------

"E Position" (Follows D Position)

E|--------------------------------------
B|--------------------------------------
G|--------------------------------------
D|-----2--2--0-----2--2--0-----0--------
A|--------------2-----------2-----2--0--
E|--0-----------------------------------

D/F# Position (follows E position)

E|--------------------------------------------
B|--------------------------------------------
G|-----2--2--0-----2--2--0--------------------
D|--------------2-----------4--2--0-----------
A|-----------------------------------4--2--0--
E|--2-----------------------------------------

Verse

E|------------------------------------------------------------------------------------
B|------------------------------------------------------------------------------------
G|------------------------------------------------------------------------------------
D|------------------------------------------------------------------------------------
A|------------------------------------------------------------------------------------
E|--0--3--4--5-----0--3--4--5-----0--3--4--5-----0--3--4--5--5--7--7--8--8--9--9--10--

Verse

E|-------------------------------------------------------------
B|-------------------------------------------------------------
G|-------------------------------------------------------------
D|-------------------------------------------------------------
A|-------------------------------------------------------------
E|--10--11--12-----0--10--11--12-----0--3--4--5-----0--3--4--5\

							http://www.guitartabcreator.com
Instruments
{"strings":[[[".",".",".",".",".",".",".",".",".",".",".","."],[".",".",".",".",".",".",".",".",".",".",".","."],[".",".",".",".",".",".",".",".",".",".",".","."],[".",7,7,5,".",7,7,5,".",5,5,7],[".",".",".",".",7,".",".",".",7,".",".","."],[5,".",".",".",".",".",".",".",".",".",".","."]],[[".",".",".",".",".",".",".",".",".",".",".",".",".",".",".",".",".",".",".",".",".",".",".","."],[".",".",".",".",".",".",".",".",".",".",".",".",".",".",".",".",".",".",".",".",".",".",".","."],[".",7,7,5,".",7,7,5,".",5,5,7,".",7,7,5,".",7,7,5,".",5,5,"."],[".",".",".",".",7,".",".",".",7,".",".",".",".",".",".",".",7,".",".",".",7,".",".",7],[5,".",".",".",".",".",".",".",".",".",".",".",5,".",".",".",".",".",".",".",".",".",".","."],[".",".",".",".",".",".",".",".",".",".",".",".",".",".",".",".",".",".",".",".",".",".",".","."]],[[".",".",".",".",".",".",".",".",".",".",".","."],[".",".",".",".",".",".",".",".",".",".",".","."],[".",".",".",".",".",".",".",".",".",".",".","."],[".",2,2,0,".",2,2,0,".",0,".","."],[".",".",".",".",2,".",".",".",2,".",2,0],[0,".",".",".",".",".",".",".",".",".",".","."]],[[".",".",".",".",".",".",".",".",".",".",".",".",".","."],[".",".",".",".",".",".",".",".",".",".",".",".",".","."],[".",2,2,0,".",2,2,0,".",".",".",".",".","."],[".",".",".",".",2,".",".",".",4,2,0,".",".","."],[".",".",".",".",".",".",".",".",".",".",".",4,2,0],[2,".",".",".",".",".",".",".",".",".",".",".",".","."]],[[".",".",".",".","_",".",".",".",".","_",".",".",".",".","_",".",".",".",".",".",".",".",".",".",".",".","."],[".",".",".",".","_",".",".",".",".","_",".",".",".",".","_",".",".",".",".",".",".",".",".",".",".",".","."],[".",".",".",".","_",".",".",".",".","_",".",".",".",".","_",".",".",".",".",".",".",".",".",".",".",".","."],[".",".",".",".","_",".",".",".",".","_",".",".",".",".","_",".",".",".",".",".",".",".",".",".",".",".","."],[".",".",".",".","_",".",".",".",".","_",".",".",".",".","_",".",".",".",".",".",".",".",".",".",".",".","."],[0,3,4,5,"_",0,3,4,5,"_",0,3,4,5,"_",0,3,4,5,5,7,7,8,8,9,9,10]],[[".",".",".","_",".",".",".",".","_",".",".",".",".","_",".",".",".",".","."],[".",".",".","_",".",".",".",".","_",".",".",".",".","_",".",".",".",".","."],[".",".",".","_",".",".",".",".","_",".",".",".",".","_",".",".",".",".","."],[".",".",".","_",".",".",".",".","_",".",".",".",".","_",".",".",".",".","."],[".",".",".","_",".",".",".",".","_",".",".",".",".","_",".",".",".",".","."],[10,11,12,"_",0,10,11,12,"_",0,3,4,5,"_",0,3,4,5,"\\"]]],"numberofstrings":6,"notes":["E","B","G","D","A","E","B"],"capo":0,"stringnotes":["E4","B3","G3","D3","A2","E2"],"comments":["\"A Position\"","\"D\" Position (Follows A Position)","\"E Position\" (Follows D Position)","D/F# Position (follows E position)","Verse","Verse"],"timing":[["W","W","W","W","W","W","W","W","W","W","W","W"],["W","W","W","W","W","W","W","W","W","W","W","W","W","W","W","W","W","W","W","W","W","W","W","W"],["W","W","W","W","W","W","W","W","W","W","W","W"],["W","W","W","W","W","W","W","W","W","W","W","W","W","W"],["W","W","W","W",null,"W","W","W","W",null,"W","W","W","W","W","W","W","W","W","W","W","W","W","W","W","W","W"],["W","W","W",null,"W","W","W","W",null,"W","W","W","W",null,"W","W","W","W"]],"timingvisible":false,"tabcounter":19,"stave":5,"totalstaves":6,"instrument":"6guitar","selectedtuning":"6_standard","version":"13"}

Member for

1 month 2 weeks
Submitted by bandbmagic@gmail.com on Fri, 2020-05-22 11:37