Dreams - Fleetwood Mac

Chords

01234567891011121314151617181920212223
E
B
G
D
A
E
B
0 1 2 3 4 5 6 7 8 9 10 11 12 13 14 15 16 17 18 19 20 21 22 23
(/) Slide Up  (\) Slide Down  (h) Hammer On  (p) Pull Off  (b) Bend (r) Release (v) Vibrato

Melody 1

A|------------------------------------------------
B|--5-----------------------------------3---------
G|--------2/4\2p0-----------------4---------------
D|-----------------2-----2/4\2p0-----------2/4\2--

Post Chorus Phrase 1

A|--3--------------------------0--------------
B|--------5--3--5--3--5-----------3-----------
G|-----------------------2-----------2--0-----
D|-----------------------------------------2--

Post Chorus Phrase 2

A|--3--------------------0-----------------0-----------
B|--------5--3--5-----------3-----------------3--------
G|-----------------2-----------0--2--------------0-----
D|-----------------------------------2--------------2--

							http://www.guitartabcreator.com
Instruments
{"strings":[[[".","_",".",".",".",".",".",".",".",".","_",".",".",".",".",".",".",".",".","_",".",".",".",".",".","."],[5,"_",".",".",".",".",".",".",".",".","_",".",".",".",".",".",".",".",".","_",3,".",".",".",".","."],[".","_",2,"/",4,"\\",2,"p",0,".","_",".",".",".",".",".",".",".",4,"_",".",".",".",".",".","."],[".","_",".",".",".",".",".",".",".",2,"_",2,"/",4,"\\",2,"p",0,".","_",".",2,"/",4,"\\",2]],[[3,"_",".",".",".",".",".",".","_",0,".",".",".","."],[".","_",5,3,5,3,5,".","_",".",3,".",".","."],[".","_",".",".",".",".",".",2,"_",".",".",2,0,"."],[".","_",".",".",".",".",".",".","_",".",".",".",".",2]],[[3,"_",".",".",".",".","_",0,".",".",".",".","_",0,".",".","."],[".","_",5,3,5,".","_",".",3,".",".",".","_",".",3,".","."],[".","_",".",".",".",2,"_",".",".",0,2,".","_",".",".",0,"."],[".","_",".",".",".",".","_",".",".",".",".",2,"_",".",".",".",2]]],"numberofstrings":4,"notes":["A","B","G","D"],"capo":0,"stringnotes":["A4","E4","C4","G3"],"comments":["Melody 1","Post Chorus Phrase 1","Post Chorus Phrase 2"],"timing":[["W",null,"W",null,"W",null,"W",null,"W","W",null,"W",null,"W",null,"W",null,"W","W",null,"W","W","W","W",null,"W"],["W",null,"W","W","W","W","W","W",null,"W","W","W","W","W"],["W","W","W","W","W","W",null,"W","W","W","W","W",null,"W","W","W","W"]],"timingvisible":false,"tabcounter":17,"stave":2,"totalstaves":3,"instrument":"ukulele","selectedtuning":"ukulele","version":"13"}

Member for

1 month 2 weeks
Submitted by bandbmagic@gmail.com on Fri, 2020-05-22 11:23