Sound will begin in 5 seconds

You - Romeo Santos

01234567891011121314151617181920212223
E
B
G
D
A
E
B
0 1 2 3 4 5 6 7 8 9 10 11 12 13 14 15 16 17 18 19 20 21 22 23
Song Science #1: How Pros Use 6 Chords to Write Hit Songs
(/) Slide Up  (\) Slide Down  (h) Hammer On  (p) Pull Off  (b) Bend (r) Release (v) Vibrato

Stave 1:

E|------------------------------------------------
B|------13--12--13--10h12------15--13--12--12h13--
G|------------------------------------------------
D|--15---------------------17---------------------
A|------------------------------------------------
E|------------------------------------------------

Stave 2:

E|----------------------12----------------------------------
B|----------15------------------------------15----------13--
G|------12----------12----------12------12----------12------
D|--14----------14----------14------14----------14----------
A|----------------------------------------------------------
E|----------------------------------------------------------

Stave 3:

E|---------------------------------------------
B|------13--12--13--10h12------15--13--10--12--
G|---------------------------------------------
D|--15---------------------17------------------
A|---------------------------------------------
E|---------------------------------------------

Stave 4:

E|------------------------------------------------------
B|------------------------------------------------------
G|------------------------------------------------------
D|--17--15--14h15p14--12--10--17--15--14h15p14--12--10--
A|------------------------------------------------------
E|------------------------------------------------------

Stave 5:

E|--12--10--12--10--12--10--12--10--14h15--14--12h14p12--
B|-------------------------------------------------------
G|-------------------------------------------------------
D|-------------------------------------------------------
A|-------------------------------------------------------
E|-------------------------------------------------------

Stave 6:

E|------------10---------10----------10---------10--
B|--------12------12/14----------12------12/14------
G|----12---------------------12---------------------
D|--------------------------------------------------
A|--------------------------------------------------
E|--------------------------------------------------

Stave 7:

E|--------------10---------------------9--9h10p9--9------9--
B|------12----------12------12-----10----------------10-----
G|--11------11----------11------9---------------------------
D|----------------------------------------------------------
A|----------------------------------------------------------
E|----------------------------------------------------------

Stave 8:

E|----------10---------------------10-------------
B|------12------12/14--12------12------12/14--12--
G|--12---------------------12---------------------
D|------------------------------------------------
A|------------------------------------------------
E|------------------------------------------------

Stave 9:

E|--------------10---------------------9--12--9h10p9--
B|------12----------12------12-----10-----------------
G|--11------11----------11------9---------------------
D|----------------------------------------------------
A|----------------------------------------------------
E|----------------------------------------------------

http://www.guitartabcreator.com
Guitar Tab Creator is intended to store guitar tab created through the tool. It currently does not support in-line text editing. Any text you place in here will be lost. If you need to comment on your tab, please use the "Tab Notes" section located below.