Joey's Bass - System of a Down Type Beat

01234567891011121314151617181920212223
E
B
G
D
A
E
B
0 1 2 3 4 5 6 7 8 9 10 11 12 13 14 15 16 17 18 19 20 21 22 23
(/) Slide Up  (\) Slide Down  (h) Hammer On  (p) Pull Off  (b) Bend (r) Release (v) Vibrato

Stave 1:

G|------------------------------------------------------------------------------------
D|---------------------------------------------------------------------------6--3-----
A|------------------------------------------------------------------------------------
E|--0--0--1--4--4--5--7--7--7--5--4h5p4--1--4--0--0--1--4--4--5--7--7--5--4--------1--

Stave 2:

G|-----------------------------------------------------------------------------
D|-----------------------------7-----------------------------------------------
A|-----------------------------------7-----------------------------7-----7--7--
E|--0--0--0--1--0--0--0--5--------8-----8--0--0--0--1--0--0--0--5-----8--------

Stave 3:

G|--------------------------------------------------
D|--------------------------------------------------
A|--------------------------------------------------
E|--5--5--5--5--3--3--3--3--1--1--1--1--0--0--0--0--

							http://www.guitartabcreator.com
Chords

Tab Notes
E Standard 432 Hz 120 bpm
Instruments
{"strings":[[[".",".",".",".",".",".",".",".",".",".",".",".",".",".",".",".",".",".",".",".",".",".",".",".",".",".",".",".",".","."],[".",".",".",".",".",".",".",".",".",".",".",".",".",".",".",".",".",".",".",".",".",".",".",".",".",".",".",6,3,"."],[".",".",".",".",".",".",".",".",".",".",".",".",".",".",".",".",".",".",".",".",".",".",".",".",".",".",".",".",".","."],[0,0,1,4,4,5,7,7,7,5,4,"h",5,"p",4,1,4,0,0,1,4,4,5,7,7,5,4,".",".",1]],[[".",".",".",".",".",".",".",".","_",".",".",".",".",".",".",".",".",".",".",".",".",".",".",".","."],[".",".",".",".",".",".",".",".","_",7,".",".",".",".",".",".",".",".",".",".",".",".",".",".","."],[".",".",".",".",".",".",".",".","_",".",".",7,".",".",".",".",".",".",".",".",".",7,".",7,7],[0,0,0,1,0,0,0,5,"_",".",8,".",8,0,0,0,1,0,0,0,5,".",8,".","."]],[[".",".",".",".",".",".",".",".",".",".",".",".",".",".",".","."],[".",".",".",".",".",".",".",".",".",".",".",".",".",".",".","."],[".",".",".",".",".",".",".",".",".",".",".",".",".",".",".","."],[5,5,5,5,3,3,3,3,1,1,1,1,0,0,0,0]]],"numberofstrings":4,"notes":["G","D","A","E"],"capo":0,"stringnotes":["G2","D2","A1","E1"],"comments":["Stave 1:","Stave 2:","Stave 3:"],"timing":[["W","W","W","W","W","W","W","W","W","W","W",null,"W",null,"W","W","W","W","W","W","W","W","W","W","W","W","W","W","W","W"],["W","W","W","W","W","W","W","W",null,"W","W","W","W","W","W","W","W","W","W","W","W","W","W","W","W"],["W","W","W","W","W","W","W","W","W","W","W","W","W","W","W","W"]],"timingvisible":false,"tabcounter":16,"stave":2,"totalstaves":3,"instrument":"4bass","selectedtuning":"4bass","version":"13"}

Member for

1 month 1 week
Submitted by babypalosanto on Fri, 2021-01-15 20:02