Sound will begin in 5 seconds

We Will Run (Second Guitar)

Chords
01234567891011121314151617181920212223
E
B
G
D
A
E
B
0 1 2 3 4 5 6 7 8 9 10 11 12 13 14 15 16 17 18 19 20 21 22 23
Song Science #1: How Pros Use 6 Chords to Write Hit Songs
(/) Slide Up  (\) Slide Down  (h) Hammer On  (p) Pull Off  (b) Bend (r) Release (v) Vibrato

Capo Fret 4

Stave 1:

D|-----------2---0---
G|---4---2-----------
G|-----------5---5---
D|---5---4-----------
G|-------------------
C|-------------------

Stave 2:

D|---------------------------
G|---------------------------
G|---2---4---9---2---4---9---
D|---------------------------
G|---2---4---9---2---4---9---
C|---------------------------

Stave 3:

D|---5---4---2---9---2---5---4---2---9---2---0---
G|-----------------------------------------------
G|-----------------------------------------------
D|---5---4---2---9---2---5---4---2---9---2---2---
G|-----------------------------------------------
C|-----------------------------------------------

Stave 4:

D|---5---4---5---5---
G|-------------------
G|-------------------
D|---5---4---5---4---
G|-------------------
C|-------------------

Stave 5:

D|---2---4---5---9---4---2---
G|---------------------------
G|---------------------------
D|---2---4---5---9---4---2---
G|---------------------------
C|---------------------------

http://www.guitartabcreator.com
Guitar Tab Creator is intended to store guitar tab created through the tool. It currently does not support in-line text editing. Any text you place in here will be lost. If you need to comment on your tab, please use the "Tab Notes" section located below.