Sound will begin in 5 seconds

INTERLUDE - THE OPEN ROAD (Second Guitar Parts)

Chords
01234567891011121314151617181920212223
E
B
G
D
A
E
B
0 1 2 3 4 5 6 7 8 9 10 11 12 13 14 15 16 17 18 19 20 21 22 23
Song Science #1: How Pros Use 6 Chords to Write Hit Songs
(/) Slide Up  (\) Slide Down  (h) Hammer On  (p) Pull Off  (b) Bend (r) Release (v) Vibrato

Capo Fret 7

Stave 1:

D|--------------------------------
G|--0-----0-----0-----------------
G|--2--4--2-----0--0-----0--4--0--
D|--0-----0-----0--0--2--2-----0--
G|--0-----0-----0--0-----0-----0--
C|-----------------0-----0-----0--

Stave 2:

D|--4--5--9--4--5--2--
G|--0--0--0--0--0--0--
G|--0--0--0--0--0--0--
D|--4--5--9--4--5--2--
G|--------------------
C|--------------------

Stave 3:

D|-----------------------
G|-----------------------
G|--4--2--7--0--4--2--0--
D|--0--0--0--2--0--0--2--
G|--4--2--7--0--4--2--0--
C|--4--2--7--0--4--2--0--

Stave 4:

D|--9--7--5--
G|--0--0--0--
G|--7--5--4--
D|-----------
G|-----------
C|-----------

Stave 5:

D|--9--10--9--5--
G|--0--0---0--0--
G|--7--9---7--4--
D|---------------
G|---------------
C|---------------

http://www.guitartabcreator.com
Guitar Tab Creator is intended to store guitar tab created through the tool. It currently does not support in-line text editing. Any text you place in here will be lost. If you need to comment on your tab, please use the "Tab Notes" section located below.