Sound will begin in 5 seconds

HOME (Guitar Part)

Chords
01234567891011121314151617181920212223
E
B
G
D
A
E
B
0 1 2 3 4 5 6 7 8 9 10 11 12 13 14 15 16 17 18 19 20 21 22 23
Song Science #1: How Pros Use 6 Chords to Write Hit Songs
(/) Slide Up  (\) Slide Down  (h) Hammer On  (p) Pull Off  (b) Bend (r) Release (v) Vibrato

Capo Fret 6

Stave 1:

D|--------------------
G|--------------------
G|--------------------
D|--5--2--9--5--4--9--
G|--4--0--7--4--2--7--
C|--4--0--7--4--2--7--

Stave 2:

D|--------------------------------------------------
G|--------------------------------------------------
G|--------------------------------------------------
D|--9--5--9--5--2--9--4--9--5--9--5--2--9--4--2--0--
G|--7--4--7--4--0--7--2--7--4--7--4--0--7--2--0-----
C|--7--4--7--4--0--7--2--7--4--7--4--0--7--2--0-----

Stave 3:

D|--------------------
G|--------------------
G|--------------------
D|--5--2--9--5--4--9--
G|--4--0--7--4--2--7--
C|--4--0--7--4--2--7--

Stave 4:

D|-----------
G|-----------
G|-----------
D|--4--2--5--
G|--2--0--4--
C|--2--0--4--

http://www.guitartabcreator.com
Guitar Tab Creator is intended to store guitar tab created through the tool. It currently does not support in-line text editing. Any text you place in here will be lost. If you need to comment on your tab, please use the "Tab Notes" section located below.