High

01234567891011121314151617181920212223
E
B
G
D
A
E
B
0 1 2 3 4 5 6 7 8 9 10 11 12 13 14 15 16 17 18 19 20 21 22 23
(/) Slide Up  (\) Slide Down  (h) Hammer On  (p) Pull Off  (b) Bend (r) Release (v) Vibrato

Stave 1:

G|-------------------------------------------------------------------------------------------
D|-----0h2--0h2--0h2--0-----0h3--0h3--0h3--0-----0h2--0h2--0h2--0----------0h3-------0h3-----
A|--0--------------------0--------------------0--------------------0--0h3-------0h3-------0--
E|-------------------------------------------------------------------------------------------

Stave 2:

G|-----------
D|-----------
A|--1-----3--
E|-----1-----

							http://www.guitartabcreator.com
Chords

Instruments
{"strings":[[[".",".",".",".",".",".",".",".",".",".",".",".",".",".",".",".",".",".",".",".",".",".",".",".",".",".",".",".",".",".",".",".",".",".",".",".",".",".",".",".",".",".",".",".",".",".","."],[".",0,"h",2,0,"h",2,0,"h",2,0,".",0,"h",3,0,"h",3,0,"h",3,0,".",0,"h",2,0,"h",2,0,"h",2,0,".",".",".",".",0,"h",3,".",".",".",0,"h",3,"."],[0,".",".",".",".",".",".",".",".",".",".",0,".",".",".",".",".",".",".",".",".",".",0,".",".",".",".",".",".",".",".",".",".",0,0,"h",3,".",".",".",0,"h",3,".",".",".",0],[".",".",".",".",".",".",".",".",".",".",".",".",".",".",".",".",".",".",".",".",".",".",".",".",".",".",".",".",".",".",".",".",".",".",".",".",".",".",".",".",".",".",".",".",".",".","."]],[[".",".","."],[".",".","."],[1,".",3],[".",1,"."]]],"numberofstrings":4,"notes":["G","D","A","E"],"capo":0,"stringnotes":["G2","D2","A1","E1"],"comments":["Stave 1:","Stave 2:"],"timing":[["W","W",null,"W","W",null,"W","W",null,"W","W","W","W",null,"W","W",null,"W","W",null,"W","W","W","W",null,"W","W","W","W","W",null,"W","W","W","W",null,"W","W",null,"W","W",null,"W","W",null,"W","W","W"],["W","W","W"]],"timingvisible":false,"tabcounter":3,"stave":1,"totalstaves":2,"instrument":"4bass","selectedtuning":"4bass","version":"13"}

Member for

1 month 2 weeks
Submitted by ayyogrego on Wed, 2021-01-20 14:12