The Empress/Big Smoke/Genesis

01234567891011121314151617181920212223
E
B
G
D
A
E
B
0 1 2 3 4 5 6 7 8 9 10 11 12 13 14 15 16 17 18 19 20 21 22 23
(/) Slide Up  (\) Slide Down  (h) Hammer On  (p) Pull Off  (b) Bend (r) Release (v) Vibrato

Stave 1:

G|-------------------------------------|-----------------------------------
D|-----2/7-----2/7-----2/7-----2/7--9--|-----------------------------4--6--
A|--0-------0-------0-------0----------|-----2/7-----2/7-----2/7-----------
E|-------------------------------------|--0-------0-------0-------0--------

Stave 2:

G|-----------------------------------------|----------------------------------9h11p9----------------------
D|-------------------------6--4--2--2/4\2--|--1h2--1-----------------9h10h11----------11-----11-----------
A|-----6b7b6--4\2--4/6--0------------------|----------2--0--9h10h11---------------------------------------
E|--0--------------------------------------|----------------------------------------------9------9--7--5--

Stave 3:

G|--------------------------------------------------|--------------------------------------------------
D|--------------------------------------------------|-----6/7\6-----4\2/4-----6/7\6--------------------
A|-----6/7\6-----4\2/4-----6/7\6--------------------|--0---------0---------0---------0--------0--------
E|--0---------0---------0---------0--2--4--0--2--4--|-----------------------------------4--2-----4--2--

Stave 4:

G|--------|-----------------------------------------------------
D|--------|-----------------------------------------------------
A|-----0--|-----9--11--6--7--12--11--9--0--2-----4--0--3--5-----
E|--0-----|--0--------------------------------0--------------0--

Stave 5:

G|--------------------
D|--------------------
A|--------4--0--3--5--
E|--0--4--------------

							http://www.guitartabcreator.com
Chords

Instruments
{"strings":[[[".",".",".",".",".",".",".",".",".",".",".",".",".",".",".",".",".","|",".",".",".",".",".",".",".",".",".",".",".",".",".",".","."],[".",2,"/",7,".",2,"/",7,".",2,"/",7,".",2,"/",7,9,"|",".",".",".",".",".",".",".",".",".",".",".",".",".",4,6],[0,".",".",".",0,".",".",".",0,".",".",".",0,".",".",".",".","|",".",2,"/",7,".",2,"/",7,".",2,"/",7,".",".","."],[".",".",".",".",".",".",".",".",".",".",".",".",".",".",".",".",".","|",0,".",".",".",0,".",".",".",0,".",".",".",0,".","."]],[[".",".",".",".",".",".",".",".",".",".",".",".",".",".",".",".",".",".",".",".",".","|",".",".",".",".",".",".",".",".",".",".",".",".",".",".",".",".",9,"h",11,"p",9,".",".",".",".",".","."],[".",".",".",".",".",".",".",".",".",".",".",".",".",6,4,2,2,"/",4,"\\",2,"|",1,"h",2,1,".",".",".",".",".",".",".",9,"h",10,"h",11,".",".",".",".",".",11,".",11,".",".","."],[".",6,"b",7,"b",6,4,"\\",2,4,"/",6,0,".",".",".",".",".",".",".",".","|",".",".",".",".",2,0,9,"h",10,"h",11,".",".",".",".",".",".",".",".",".",".",".",".",".",".",".","."],[0,".",".",".",".",".",".",".",".",".",".",".",".",".",".",".",".",".",".",".",".","|",".",".",".",".",".",".",".",".",".",".",".",".",".",".",".",".",".",".",".",".",".",".",9,".",9,7,5]],[[".",".",".",".",".",".",".",".",".",".",".",".",".",".",".",".",".",".",".",".",".",".",".",".","|",".",".",".",".",".",".",".",".",".",".",".",".",".",".",".",".",".",".",".",".",".",".",".","."],[".",".",".",".",".",".",".",".",".",".",".",".",".",".",".",".",".",".",".",".",".",".",".",".","|",".",6,"/",7,"\\",6,".",4,"\\",2,"/",4,".",6,"/",7,"\\",6,".",".",".",".",".","."],[".",6,"/",7,"\\",6,".",4,"\\",2,"/",4,".",6,"/",7,"\\",6,".",".",".",".",".",".","|",0,".",".",".",".",".",0,".",".",".",".",".",0,".",".",".",".",".",0,".",".",0,".","."],[0,".",".",".",".",".",0,".",".",".",".",".",0,".",".",".",".",".",0,2,4,0,2,4,"|",".",".",".",".",".",".",".",".",".",".",".",".",".",".",".",".",".",".",".",4,2,".",4,2]],[[".",".","|",".",".",".",".",".",".",".",".",".",".",".",".",".",".",".","."],[".",".","|",".",".",".",".",".",".",".",".",".",".",".",".",".",".",".","."],[".",0,"|",".",9,11,6,7,12,11,9,0,2,".",4,0,3,5,"."],[0,".","|",0,".",".",".",".",".",".",".",".",".",0,".",".",".",".",0]],[[".",".",".",".",".","."],[".",".",".",".",".","."],[".",".",4,0,3,5],[0,4,".",".",".","."]]],"numberofstrings":4,"notes":["G","D","A","E"],"capo":0,"stringnotes":["G2","D2","A1","E1"],"comments":["Stave 1:","Stave 2:","Stave 3:","Stave 4:","Stave 5:"],"timing":[["W","W",null,"W","W","W",null,"W","W","W",null,"W","W","W",null,"W","W","W","W","W","W","W","W","W","W","W","W","W","W","W","W","W","W"],["W","W",null,"W",null,"W","W",null,"W","W",null,"W","W","W","W","W","W",null,"W",null,"W",null,"W",null,"W","W","W","W","W",null,"W",null,"W","W",null,"W",null,"W","W",null,"W",null,"W","W","W","W","W","W","W"],["W","W",null,"W",null,"W","W","W",null,"W",null,"W","W","W",null,"W",null,"W","W","W","W","W","W","W",null,"W","W",null,"W",null,"W","W","W",null,"W",null,"W","W","W",null,"W",null,"W","W","W","W","W","W","W"],["W","W",null,"W","W","W","W","W","W","W","W","W","W","W","W","W","W","W","W"],["W","W","W","W","W","W","W"]],"timingvisible":false,"tabcounter":6,"stave":4,"totalstaves":5,"instrument":"4bass","selectedtuning":"4bass","version":"13"}

Member for

1 month 2 weeks
Submitted by ayyogrego on Wed, 2021-01-20 15:12