Sound will begin in 5 seconds

pokemon diamond pearl credits theme

Chords
01234567891011121314151617181920212223
E
B
G
D
A
E
B
0 1 2 3 4 5 6 7 8 9 10 11 12 13 14 15 16 17 18 19 20 21 22 23
(/) Slide Up  (\) Slide Down  (h) Hammer On  (p) Pull Off  (b) Bend (r) Release (v) Vibrato



E|---------------------------------------------------------------
B|-------------------------10--12------10------------------------
G|------------------9--12----------12-------------------------9--
D|----------10--12-------------------------10--9-----------------
A|--10--12----------------------------------------12--11--10-----
E|---------------------------------------------------------------



E|--------------------------------------------------------------------
B|-------------------------10--12--13------10-------------------------
G|----------------------9--------------12----------10--9--------------
D|----------10--12--10-------------------------10---------12------10--
A|--10--12----------------------------------------------------10------
E|--------------------------------------------------------------------



E|-------------12--10----------------------------------------------------------------
B|---------10----------12--10--------------------------------------------------------
G|--9--12----------------------12--9------9----------9----------9--12--9------9------
D|------------------------------------12---------12---------12------------10-----12--
A|-------------------------------------------12---------12---------------------------
E|-----------------------------------------------------------------------------------



E|-------------12--10----------10---------------------------------------------------3--
B|---------10----------12--13------12--12------10-----------------------------------x--
G|--9--12----------------------------------12----------9----------9----------9--12--x--
D|-------------------------------------------------12---------12---------12---------x--
A|--------------------------------------------------------12---------12-------------x--
E|----------------------------------------------------------------------------------3--



E|-------------------------------------------------------------------------------------------------------------------------------------------
B|-------------------------10--12--------------------------------------------------------------10--12--13------------------------------------
G|------------------9--12----------12-----12h14---------------------9----------------------12--------------12--12h14------10--9--------------
D|----------10--12-------------------------------10--9-------------------------10--12--10-----------------------------10---------12------10--
A|--10--12----------------------------------------------12--11--10-----10--12--------------------------------------------------------10------
E|-------------------------------------------------------------------------------------------------------------------------------------------



E|---------------------------------------------------------------
B|-------------------------10--12------10------------------------
G|------------------9--12----------12-------------------------9--
D|----------10--12-------------------------10--9-----------------
A|--10--12----------------------------------------12--11--10-----
E|---------------------------------------------------------------

Stave 7:

E|------------------------------------------------------------------------------------------------------------------------------------------------------------------
B|--------------------------10--12--13------10----------------------------------------------------------------------------------------------------------------------
G|----------------------12--------------12----------10--9-----------------------------------------------------------------------------------------------------------
D|----------10--12--10--------------------------10---------12------10-----------------------------------------------------------------------------------------------
A|--10--12-----------------------------------------------------10---------------------------------------------------------------------------------------------------
E|------------------------------------------------------------------------------------------------------------------------------------------------------------------

Stave 8:

E|----------------------------------------------------------------15------12--------------10--
B|-------------------------10--12------10-----------------------------15------13--15------13--
G|------------------9--12----------12-------------------------------------------------12--12--
D|----------10--12-------------------------10--9--------------12------------------------------
A|--10--12----------------------------------------12--11--10----------------------------------
E|--------------------------------------------------------------------------------------------

Stave 9:

E|------------------12--15--16--17--18--19--12--15/17------13--12--------------
B|----------13--15-------------------------------------13----------15------13--
G|--12--14-------------------------------------------------------------13------
D|-----------------------------------------------------------------------------
A|-----------------------------------------------------------------------------
E|-----------------------------------------------------------------------------

Stave 10:

E|--------------------------------------------------------------------------------------------
B|------------------10---------------------10-------------------------------------------------
G|----------10--12------10--9----------12------9----------------10--12h14--12--9--10--11--12--
D|--10--12---------------------12--10-------------12--10--10\9--------------------------------
A|--------------------------------------------------------------------------------------------
E|--------------------------------------------------------------------------------------------

Stave 11:

E|-----------------------------------------------------10--11--10--11--10----------10--
B|-----------------11--13--11--------------------6/13----------------------13--12------
G|--9--10--12--13--------------13--12--10--12\6----------------------------------------
D|-------------------------------------------------------------------------------------
A|-------------------------------------------------------------------------------------
E|-------------------------------------------------------------------------------------

Stave 12:

E|------12--12--11/12--13\12--
B|----------------------------
G|--12------------------------
D|----------------------------
A|----------------------------
E|----------------------------

http://www.guitartabcreator.com
Guitar Tab Creator is intended to store guitar tab created through the tool. It currently does not support in-line text editing. Any text you place in here will be lost. If you need to comment on your tab, please use the "Tab Notes" section located below.