Sound will begin in 5 seconds

Wanted Dead Or Alive Solo - Bon Jovi

Chords
01234567891011121314151617181920212223
E
B
G
D
A
E
B
0 1 2 3 4 5 6 7 8 9 10 11 12 13 14 15 16 17 18 19 20 21 22 23
Song Science #1: How Pros Use 6 Chords to Write Hit Songs
(/) Slide Up  (\) Slide Down  (h) Hammer On  (p) Pull Off  (b) Bend (r) Release (v) Vibrato

Stave 1:

E|------------------------------------------------|-----------------13--15--15b17--17b15--13--15b17--|--
B|------------------------------------------------|---------13--15-----------------------------------|--
G|------------------------------------------------|--12h14-------------------------------------------|--
D|----------------------------5b7--7--7--7b5--3v--|--------------------------------------------------|--
A|--5p3/5--5p3/5--3-----5-------------------------|--------------------------------------------------|--
E|-------------------5-----5----------------------|--------------------------------------------------|--

Stave 2:

E|---------------------|--------------------------------|--------------------13-----------------------------
B|---------------------|--------------------------------|---------13--------------------13------------------
G|------------------7--|--------------------------------|--12b14------12b14------12b14------12b14--12--10v--
D|--7v--------------7--|-------3-------------5b7b5--3v--|---------------------------------------------------
A|------3--0--5--3--5--|--3h5-----5-----3h5-------------|---------------------------------------------------
E|---------------------|-------------5------------------|---------------------------------------------------

Stave 3:

E|--------------------|--
B|--------------------|--
G|--------------------|--
D|--------------------|--
A|--3--5--3-----5--3--|--
E|-----------5--------|--

http://www.guitartabcreator.com
Guitar Tab Creator is intended to store guitar tab created through the tool. It currently does not support in-line text editing. Any text you place in here will be lost. If you need to comment on your tab, please use the "Tab Notes" section located below.