Got to Get You Into My Life

Chords

01234567891011121314151617181920212223
E
B
G
D
A
E
B
0 1 2 3 4 5 6 7 8 9 10 11 12 13 14 15 16 17 18 19 20 21 22 23
(/) Slide Up  (\) Slide Down  (h) Hammer On  (p) Pull Off  (b) Bend (r) Release (v) Vibrato

Stave 1:

E|-----------------------3--2--5-----
B|-----3--5-----2--3-----3--3--5-----
G|-----4--6-----2--4-----------2-----
D|-----------------------------2-----
A|-----------------------------0-----
E|-----------------------------------

Stave 2:

E|--------------------------------------------------------------
B|--------------------------------------------------------------
G|-----------0--------------2-----------7b9r7-----7--9b11r9-----
D|--------2--0--------0--4--2-----7--9---------9----------------
A|--0--2-----------2--------0-----------------------------------
E|--------------------------------------------------------------

Stave 3:

E|-----------------------------------------
B|-----------------------------------------
G|-----------------------------------------
D|--2--2-----2--2-----2--2-----2--2--------
A|--4--4-----3--3-----2--2-----1--1--------
E|--4--4-----4--4-----4--4-----2--2--------

Stave 4:

E|--------------------------------------
B|--------------------------------------
G|--------------------4--4--------------
D|--4--4-----4--4-----4--4-----2--2-----
A|--5--5-----4--4-----2--2-----2--2-----
E|--5--5-----5--5--------------0--0-----

Stave 5:

E|--------------------------------------------
B|--------------------------------------------
G|--------------------------------------------
D|-----------------4--------------------2-----
A|--0--2--3--------0-----0--2--3--------0-----
E|-----------0--3-----------------0--3--------

							http://www.guitartabcreator.com
Instruments
{"strings":[[[".",".",".",".","_",".",".",3,2,5,"."],[".",3,5,".",2,3,".",3,3,5,"."],[".",4,6,".",2,4,".","_","_",2,"."],[".",".",".",".","_","_",".","_","_",2,"."],[".",".",".",".","_","_",".","_","_",0,"."],[".",".",".",".","_","_",".","_","_","_","."]],[[".",".",".",".",".",".",".",".",".",".",".",".",".",".",".",".",".",".",".",".",".",".",".",".","."],[".",".",".",".",".",".",".",".",".",".",".",".",".",".",".",".",".",".",".",".",".",".",".",".","."],[".",".",".",0,".",".",".",".",2,".",".",".",7,"b",9,"r",7,".",7,9,"b",11,"r",9,"."],[".",".",2,0,".",".",0,4,2,".",7,9,".",".",".",".",".",9,".",".",".",".",".",".","."],[0,2,".",".",".",2,".",".",0,".",".",".",".",".",".",".",".",".",".",".",".",".",".",".","."],[".",".",".",".",".",".",".",".",".",".",".",".",".",".",".",".",".",".",".",".",".",".",".",".","."]],[[".",".",".",".",".",".",".",".",".",".",".",".","."],[".",".",".",".",".",".",".",".",".",".",".",".","."],[".",".",".",".",".",".",".",".",".",".",".",".","."],[2,2,".",2,2,".",2,2,".",2,2,".","."],[4,4,".",3,3,".",2,2,".",1,1,".","."],[4,4,".",4,4,".",4,4,".",2,2,".","."]],[[".",".",".",".",".",".",".",".",".",".",".","."],[".",".",".",".",".",".",".",".",".",".",".","."],[".",".",".",".",".",".",4,4,".",".",".","."],[4,4,".",4,4,".",4,4,".",2,2,"."],[5,5,".",4,4,".",2,2,".",2,2,"."],[5,5,".",5,5,".",".",".",".",0,0,"."]],[[".",".",".",".",".",".",".",".",".",".",".",".",".","."],[".",".",".",".",".",".",".",".",".",".",".",".",".","."],[".",".",".",".",".",".",".",".",".",".",".",".",".","."],[".",".",".",".",".",4,".",".",".",".",".",".",2,"."],[0,2,3,".",".",0,".",0,2,3,".",".",0,"."],[".",".",".",0,3,".",".",".",".",".",0,3,".","."]]],"numberofstrings":6,"notes":["E","B","G","D","A","E","B"],"capo":0,"stringnotes":["E4","B3","G3","D3","A2","E2"],"comments":["Stave 1:","Stave 2:","Stave 3:","Stave 4:","Stave 5:"],"timing":[[null,"W","W","W",null,null,"W",null,null,"W","W"],[null,"W","W","W","W",null,"W","W","W","W","W","W","W","W",null,"W",null,"W","W","W","W",null,"W",null,"W"],[null,"W","W",null,"W","W",null,"W","W",null,"W","W"],[null,"W","W",null,"W","W",null,"W","W",null,"W","W","W"],[null,"W","W","W","W","W","W",null,"W","W","W","W","W","W","W"]],"timingvisible":false,"tabcounter":14,"stave":4,"totalstaves":5,"instrument":"6guitar","selectedtuning":"6_standard","version":"13"}

Member for

2 years 9 months
Submitted by Axabitte on Thu, 2020-05-21 17:06