Sound will begin in 5 seconds

Reflections

Chords
01234567891011121314151617181920212223
E
B
G
D
A
E
B
0 1 2 3 4 5 6 7 8 9 10 11 12 13 14 15 16 17 18 19 20 21 22 23
Song Science #1: How Pros Use 6 Chords to Write Hit Songs
(/) Slide Up  (\) Slide Down  (h) Hammer On  (p) Pull Off  (b) Bend (r) Release (v) Vibrato

Stave 1:

E|--------------8--------|--6-----------6--------|--5-----6--5-----------|-------------------------|--
B|--6-----5--6--------5--|-----------5--------5--|--------------8--6--5--|--6--------8-------------|--
G|-----------------7-----|--------7--------5-----|-----------------------|--------5---------10--9--|--
D|-----------------------|-----------------------|-----------------------|-----7-------------------|--
A|-----------------------|-----------------------|-----------------------|--8--------7--10---------|--
E|-----------------------|-----------------------|-----------------------|-------------------------|--

Stave 2:

E|--------------------5--|--5-----6-----5--------|--------0--0--3--5--6--|--5-----6--8-----6--5--|--
B|--6--------6--5--6-----|-----------------8--6--|--5--------------------|-----------------------|--
G|--------7--------------|-----------------------|-----------------------|-----------------------|--
D|-----------------------|--8--------------------|-----------------------|--3--------------------|--
A|--5--------------------|-----------------------|--3--------------------|-----------7-----------|--
E|-----------------------|-----------------------|-----------------------|-----------------------|--

Stave 3:

E|--5-----3--5--8--12--13--|--8-----8-----------------|--------------------5--|--
B|-------------------------|--------------11--10--11--|--8-----8--8--6--8-----|--
G|-------------------------|--------------------------|-----------------------|--
D|-------------------------|--8-----------------------|-----------------------|--
A|--5----------------------|--------------------------|-----------------------|--
E|-------------------------|--------------------------|--8--------------------|--

Stave 4:

E|--5-----6--5-----------|--------------------|--------------------6--8--|--13--|--
B|-----------------8--6--|--6-----8--6-----5--|-----------------6--------|------|--
G|-----------------------|--------------------|-----------5--7-----------|--10--|--
D|-----------------------|--------------------|--------8-----------------|------|--
A|--8--------7-----------|--5-----------------|-----8--------------------|------|--
E|-----------------------|-----------8--------|--6-----------------------|--10--|--

Stave 5:

E|--13-----12--|--8--------6--5--|----------------------------|--------------------5--8--|--
B|-------------|-----------------|--8-----6-----8-----10--10--|--6-----------6--8--------|--
G|--10-----9---|--5--------------|----------------------------|--------7--9--------------|--
D|-------------|-----------------|----------------------------|-----7--------------------|--
A|-------------|-----------------|----------------------------|--5-----------------------|--
E|-------------|-----8-----------|--8-------------------------|--------------------------|--

http://www.guitartabcreator.com
Guitar Tab Creator is intended to store guitar tab created through the tool. It currently does not support in-line text editing. Any text you place in here will be lost. If you need to comment on your tab, please use the "Tab Notes" section located below.