Sound will begin in 5 seconds

Aishiteru Banzai

01234567891011121314151617181920212223
E
B
G
D
A
E
B
0 1 2 3 4 5 6 7 8 9 10 11 12 13 14 15 16 17 18 19 20 21 22 23
(/) Slide Up  (\) Slide Down  (h) Hammer On  (p) Pull Off  (b) Bend (r) Release (v) Vibrato

Stave 1:

E|----------------------------------------------------------------------------------------------------------------
B|-------------------------9--10--9--------------12--12--10--9--10--9-------------------9-------------------------
G|--9--------9--11--9--11------------9--9-----9------------------------9--9------9--11-----9h11-----------------
D|-----9--9------------------------------------------------------------------11-----------------------------------
A|----------------------------------------------------------------------------------------------------------------
E|----------------------------------------------------------------------------------------------------------------

Stave 2:

E|------------------------------------------------_--_--_-----_---------------------------------------
B|-------------------------9--10--12--9-----------12--12--10--9--10--9-----------9--------9---------------
G|--9--------9--11--9--11----------------9-----9--_--_--_-----_-----9--9--------9--------11--9--8--9--
D|-----9--9---------------------------------------_--_--_-----_---------------------------------------
A|------------------------------------------------_--_--_-----_---------------------------------------
E|------------------------------------------------_--_--_-----_---------------------------------------

Stave 3:

E|------------------_-----_--------------------_-----------------------------_------------------_-----_------------------------------------------------
B|------------------_--9--_--------------------_-----------------------------_--9---------------_-----10--9------9--9-----------------------------------
G|-----9--9--9--11--11-----11--9--------8-----8--11--9--------9--8--9--8--9--8--11-----11--9-----9--11-----_-----11-----------------------------------------
D|--9---------------_-----_--------9-----9-----_--------9--------------------_------------------_-----_------------------------------------------------
A|------------------_-----_--------------------_-----------------------------_------------------_-----_------------------------------------------------
E|------------------_-----_--------------------_-----------------------------_------------------_-----_------------------------------------------------

Stave 4:

E|-----------------------_--------------------------------------------------------------------------
B|-----------------------_--9---------------------------------------------------9-------------------
G|-----9--8--9--8--9--8--11-----11--9--------8-----8--11--9----------------9--9-----11--8--9--11--9--
D|--9--------------------_---------------9-----9---------------11--9--11----------------------------
A|-----------------------_--------------------------------------------------------------------------
E|-----------------------_--------------------------------------------------------------------------

Stave 5:

E|--
B|--
G|--
D|--
A|--
E|--

http://www.guitartabcreator.com
Guitar Tab Creator is intended to store guitar tab created through the tool. It currently does not support in-line text editing. Any text you place in here will be lost. If you need to comment on your tab, please use the "Tab Notes" section located below.