rolling dice solo

Chords

01234567891011121314151617181920212223
E
B
G
D
A
E
B
0 1 2 3 4 5 6 7 8 9 10 11 12 13 14 15 16 17 18 19 20 21 22 23
(/) Slide Up  (\) Slide Down  (h) Hammer On  (p) Pull Off  (b) Bend (r) Release (v) Vibrato

Capo Fret 9

Stave 1:

E|-------------------------------------------------------------------------------------------------------------------------------
B|-------------------------------------------------------------------------------------------------------------------------------
G|-------------------------------------------------------------------------------------------------------------------------------
D|---------------------------------------------------------------------------12----12-11-0-------------0-11----11-0------------0-
A|-------------12-11----11-11/12----12----14-11----11-11----14-11-12-11-0------------------11----11-12--------------12-0----12---
E|-14----12----------------------------------------------------------------------------------------------------------------------

Stave 2:

E|--------------------------------------------------------------------------------------------------------------------
B|--------------------------------------------------------------------------------------------------------------------
G|------------------------------------------------------------------------------------14----13-14----13----14----0-11-
D|-11-12----12-11-0-------------0-11----------------------------------11----------------------------------------------
A|------------------11----11-12---------11-12----11-12----11----12-------0----0h10-11---------------------------------
E|--------------------------------------------------------------------------------------------------------------------

							http://www.guitartabcreator.com
Instruments
{"strings":[[[".","_",".","_",".",".","_",".",".",".",".","_",".","_",".",".","_",".",".","_",".",".",".",".",".","_",".","_",".",".",".",".","_",".",".",".",".","_",".",".",".",".","_",".","."],[".","_",".","_",".",".","_",".",".",".",".","_",".","_",".",".","_",".",".","_",".",".",".",".",".","_",".","_",".",".",".",".","_",".",".",".",".","_",".",".",".",".","_",".","."],[".","_",".","_",".",".","_",".",".",".",".","_",".","_",".",".","_",".",".","_",".",".",".",".",".","_",".","_",".",".",".",".","_",".",".",".",".","_",".",".",".",".","_",".","."],[".","_",".","_",".",".","_",".",".",".",".","_",".","_",".",".","_",".",".","_",".",".",".",".",".","_",12,"_",12,11,0,".","_",".",".",0,11,"_",11,0,".",".","_",".",0],[".","_",".","_",12,11,"_",11,11,"/",12,"_",12,"_",14,11,"_",11,11,"_",14,11,12,11,0,"_",".","_",".",".",".",11,"_",11,12,".",".","_",".",".",12,0,"_",12,"."],[14,"_",12,"_",".",".","_",".",".",".",".","_",".","_",".",".","_",".",".","_",".",".",".",".",".","_",".","_",".",".",".",".","_",".",".",".",".","_",".",".",".",".","_",".","."]],[[".",".","_",".",".",".",".","_",".",".",".",".","_",".",".","_",".",".","_",".","_",".","_",".",".","_",".",".",".",".",".","_",".",".","_",".","_",".","_",".","."],[".",".","_",".",".",".",".","_",".",".",".",".","_",".",".","_",".",".","_",".","_",".","_",".",".","_",".",".",".",".",".","_",".",".","_",".","_",".","_",".","."],[".",".","_",".",".",".",".","_",".",".",".",".","_",".",".","_",".",".","_",".","_",".","_",".",".","_",".",".",".",".",14,"_",13,14,"_",13,"_",14,"_",0,11],[11,12,"_",12,11,0,".","_",".",".",0,11,"_",".",".","_",".",".","_",".","_",".","_",11,".","_",".",".",".",".",".","_",".",".","_",".","_",".","_",".","."],[".",".","_",".",".",".",11,"_",11,12,".",".","_",11,12,"_",11,12,"_",11,"_",12,"_",".",0,"_",0,"h",10,11,".","_",".",".","_",".","_",".","_",".","."],[".",".","_",".",".",".",".","_",".",".",".",".","_",".",".","_",".",".","_",".","_",".","_",".",".","_",".",".",".",".",".","_",".",".","_",".","_",".","_",".","."]]],"numberofstrings":6,"notes":["E","B","G","D","A","E","B"],"capo":"9","stringnotes":["E4","B3","G3","D3","A2","E2"],"comments":["Stave 1:","Stave 2:"],"timing":[["W","W","W",null,"W","W",null,"W","W",null,"W",null,"W",null,"W","W",null,"W","W",null,"W","W","W","W","W",null,"W",null,"W","W","W","W",null,"W","W","W","W","W","W","W","W","W","W","W","W","W","W"],["W","W",null,"W","W","W","W",null,"W","W","W","W","W","W","W",null,"W","W",null,"W",null,"W",null,"W","W",null,"W",null,"W","W","W",null,"W","W","W","W",null,"W",null,"W","W"]],"timingvisible":false,"tabcounter":41,"stave":1,"totalstaves":2,"instrument":"6guitar","selectedtuning":"6_standard","version":"13"}

Member for

1 day 1 hour
Submitted by averyfern on Sat, 2020-08-01 17:36