song1

Chords

01234567891011121314151617181920212223
E
B
G
D
A
E
B
0 1 2 3 4 5 6 7 8 9 10 11 12 13 14 15 16 17 18 19 20 21 22 23
(/) Slide Up  (\) Slide Down  (h) Hammer On  (p) Pull Off  (b) Bend (r) Release (v) Vibrato

Stave 1:

E|---------------------------------------------------------
B|---------------------------------------------------------
G|--8-----8--8--8--8-----11-----11--11-----11--11--11--11--
D|--9-----9--9--9--9-----9------9---9------9---9---9---9---
A|--9-----9--9--9--9-----11-----11--11-----11--11--11--11--
E|--7-----7--7--7--7---------------------------------------

Stave 2:

E|--------------------------------------------------
B|--------------------------------------------------
G|--6-----6--6--6--6-----8-----8--8-----8--8--8--8--
D|--4-----4--4--4--4-----6-----6--6-----6--6--6--6--
A|--6-----6--6--6--6-----7-----7--7-----7--7--7--7--
E|--------------------------------------------------

Stave 3:

E|--------------------------------------------------
B|--------------------------------------------------
G|--------------------------------------------------
D|--1--1--4--4--1--1--4--4--1--1--4--4--1--1--4--4--
A|--2--2--2--2--2--2--2--2--2--2--2--2--2--2--2--2--
E|--------------------------------------------------

Stave 4:

E|--------------------------------------------------
B|--------------------------------------------------
G|--------------------------------------------------
D|--4--4--7--7--4--4--7--7--4--4--7--7--4--4--7--7--
A|--5--5--5--5--5--5--5--5--5--5--5--5--5--5--5--5--
E|--------------------------------------------------

Stave 5:

E|-----------------------------------------------------
B|-----------------------------------------------------
G|-----------------------------------------------------
D|--5--5--5--5--5--5--5--5--5--5--5--5--5--5--5--------
A|--5--5--5--5--5--5--5--5--5--5--5--5--5--5--5--------
E|--3--3--3--3--3--3--3--3--3--3--3--3--3--3--3--------

							http://www.guitartabcreator.com
Instruments
{"strings":[[[".","_",".",".",".",".","_",".","_",".",".","_",".",".",".","."],[".","_",".",".",".",".","_",".","_",".",".","_",".",".",".","."],[8,"_",8,8,8,8,"_",11,"_",11,11,"_",11,11,11,11],[9,"_",9,9,9,9,"_",9,"_",9,9,"_",9,9,9,9],[9,"_",9,9,9,9,"_",11,"_",11,11,"_",11,11,11,11],[7,"_",7,7,7,7,"_",".","_",".",".","_",".",".",".","."]],[[".","_",".",".",".",".","_",".","_",".",".","_",".",".",".","."],[".","_",".",".",".",".","_",".","_",".",".","_",".",".",".","."],[6,"_",6,6,6,6,"_",8,"_",8,8,"_",8,8,8,8],[4,"_",4,4,4,4,"_",6,"_",6,6,"_",6,6,6,6],[6,"_",6,6,6,6,"_",7,"_",7,7,"_",7,7,7,7],[".","_",".",".",".",".","_",".","_",".",".","_",".",".",".","."]],[[".",".",".",".",".",".",".",".",".",".",".",".",".",".",".","."],[".",".",".",".",".",".",".",".",".",".",".",".",".",".",".","."],[".",".",".",".",".",".",".",".",".",".",".",".",".",".",".","."],[1,1,4,4,1,1,4,4,1,1,4,4,1,1,4,4],[2,2,2,2,2,2,2,2,2,2,2,2,2,2,2,2],[".",".",".",".",".",".",".",".",".",".",".",".",".",".",".","."]],[[".",".",".",".",".",".",".",".",".",".",".",".",".",".",".","."],[".",".",".",".",".",".",".",".",".",".",".",".",".",".",".","."],[".",".",".",".",".",".",".",".",".",".",".",".",".",".",".","."],[4,4,7,7,4,4,7,7,4,4,7,7,4,4,7,7],[5,5,5,5,5,5,5,5,5,5,5,5,5,5,5,5],[".",".",".",".",".",".",".",".",".",".",".",".",".",".",".","."]],[[".",".",".",".",".",".",".","_",".",".",".",".",".",".",".","_","_"],[".",".",".",".",".",".",".","_",".",".",".",".",".",".",".","_","_"],[".",".",".",".",".",".",".","_",".",".",".",".",".",".",".","_","_"],[5,5,5,5,5,5,5,5,5,5,5,5,5,5,5,"_","_"],[5,5,5,5,5,5,5,5,5,5,5,5,5,5,5,"_","_"],[3,3,3,3,3,3,3,3,3,3,3,3,3,3,3,"_","_"]]],"numberofstrings":6,"notes":["E","B","G","D","A","E","B"],"capo":0,"stringnotes":["E4","B3","G3","D3","A2","E2"],"comments":["Stave 1:","Stave 2:","Stave 3:","Stave 4:","Stave 5:"],"timing":[["W",null,"W","W","W","W",null,"W",null,"W","W",null,"W","W","W","W"],["W",null,"W","W","W","W",null,"W",null,"W","W",null,"W","W","W","W"],["W","W","W","W","W","W","W","W","W","W","W","W","W","W","W","W"],["W","W","W","W","W","W","W","W","W","W","W","W","W","W","W","W"],["W","W","W","W","W","W","W","W","W","W","W","W","W","W","W","W"]],"timingvisible":false,"tabcounter":17,"stave":4,"totalstaves":5,"instrument":"6guitar","selectedtuning":"6_standard","version":"13"}

Member for

4 days 21 hours
Submitted by ave333 on Mon, 2021-01-11 13:50