Sound will begin in 5 seconds

Requiem the Fifth- TransSiberian Orchestra

Chords
01234567891011121314151617181920212223
E
B
G
D
A
E
B
0 1 2 3 4 5 6 7 8 9 10 11 12 13 14 15 16 17 18 19 20 21 22 23
Song Science #1: How Pros Use 6 Chords to Write Hit Songs
(/) Slide Up  (\) Slide Down  (h) Hammer On  (p) Pull Off  (b) Bend (r) Release (v) Vibrato

Stave 1:

E|--------------------------------------------------
B|--------------------------------------------------
G|--12--12--12--8-----------10--10--10--7-----------
D|--12--12--12--8-----------10--10--10--7-----------
A|--10--10--10--6-----------8---8---8---5-----------
E|--------------------------------------------------

Stave 2:

E|--------------------------------------------------
B|--------------------------------------------------
G|--------------------------------------------------
D|-----------------3--------5--3-----------3--------
A|--3--5--6--5--6-----6--5--------6--5--6-----6--5--
E|--------------------------------------------------

Stave 3:

E|--------------------------------
B|--8--8--8-----------6--6--6-----
G|-----------8-----------------7--
D|--------------------------------
A|--------------------------------
E|--------------------------------

Stave 4:

E|--------------------------|--------------------------
B|--------------------------|--------------------------
G|--------------------------|--------------------------
D|--------------------------|--5--6--5-----------------
A|--3-----5-----6-----8-----|-----------8--6--8--6--5--
E|-----3-----3-----3-----3--|--------------------------

Stave 5:

E|--------------------------------------------------
B|--------------------------------------------------
G|--------------------------------------------------
D|-----------------3--------5--3-----------3--------
A|--3--5--6--5--6-----6--5--------6--5--6-----6--5--
E|--------------------------------------------------

Stave 6:

E|-----------------------------------------
B|--8--8--8-----6--6--6--------------7--5--
G|-----------8-----------7--------8--------
D|-----------------------------------------
A|-----------------------------------------
E|-----------------------------------------

Stave 7:

E|-----------|-----|-----|-----------|-----|-----|--
B|-----------|-----|-----|-----------|-----|-----|--
G|-----------|-----|-----|-----------|-----|-----|--
D|--3--5--6--|--6--|--6--|--6--5--3--|--3--|--3--|--
A|-----------|-----|-----|-----------|-----|-----|--
E|-----------|-----|-----|-----------|-----|-----|--

Stave 8:

E|-----------|-----|-----|-----------|-----|-----|--
B|-----------|-----|-----|-----------|-----|-----|--
G|-----------|-----|-----|-----------|-----|-----|--
D|-----------|-----|-----|-----------|-----|-----|--
A|--5--6--8--|--8--|--8--|--8--6--5--|--5--|--5--|--
E|-----------|-----|-----|-----------|-----|-----|--

Stave 9:

E|------------|------|------|------------|-----|-----|--
B|------------|------|------|------------|-----|-----|--
G|------------|------|------|------------|-----|-----|--
D|------------|------|------|------------|-----|-----|--
A|--6--8--10--|--10--|--10--|--10--8--6--|--6--|--6--|--
E|------------|------|------|------------|-----|-----|--

Stave 10:

E|-------------|------|------|-------------|-----|-----|--
B|-------------|------|------|-------------|-----|-----|--
G|-------------|------|------|-------------|-----|-----|--
D|-------------|------|------|-------------|-----|-----|--
A|--8--10--11--|--11--|--11--|--11--10--8--|--8--|--8--|--
E|-------------|------|------|-------------|-----|-----|--

Stave 11:

E|-------------|------|------|----------------------|--------------|------|------|----------------------
B|-------------|------|------|----------------------|--------------|------|------|----------------------
G|-------------|------|------|----------------------|--------------|------|------|----------------------
D|--9--10--12--|--12--|--12--|--12--10--------------|--10--12--13--|--13--|--13--|--13--12--------------
A|-------------|------|------|----------10--10--10--|--------------|------|------|----------10--10--10--
E|-------------|------|------|----------------------|--------------|------|------|----------------------

http://www.guitartabcreator.com
Guitar Tab Creator is intended to store guitar tab created through the tool. It currently does not support in-line text editing. Any text you place in here will be lost. If you need to comment on your tab, please use the "Tab Notes" section located below.