Sound will begin in 5 seconds

Pentatonic scales in 5 positions in E

01234567891011121314151617181920212223
E
B
G
D
A
E
B
0 1 2 3 4 5 6 7 8 9 10 11 12 13 14 15 16 17 18 19 20 21 22 23
Song Science #1: How Pros Use 6 Chords to Write Hit Songs
(/) Slide Up  (\) Slide Down  (h) Hammer On  (p) Pull Off  (b) Bend (r) Release (v) Vibrato

Stave 1:

E|--------------------------------0--3--|--------------------------------3--5--|--
B|--------------------------0--3--------|--------------------------3--5--------|--
G|--------------------0--2--------------|--------------------2--4--------------|--
D|--------------0--2--------------------|--------------2--5--------------------|--
A|--------0--2--------------------------|--------2--5--------------------------|--
E|--0--3--------------------------------|--3--5--------------------------------|--

Stave 2:

E|--------------------------------5--7--|-----------------------------------7--10--|--
B|--------------------------5--8--------|----------------------------8--10---------|--
G|--------------------4--7--------------|----------------------7--9----------------|--
D|--------------5--7--------------------|----------------7--9----------------------|--
A|--------5--7--------------------------|---------7--10----------------------------|--
E|--5--7--------------------------------|--7--10-----------------------------------|--

Stave 3:

E|----------------------------------------10--12--|--
B|--------------------------------10--12----------|--
G|-------------------------9--12------------------|--
D|------------------9--12-------------------------|--
A|----------10--12--------------------------------|--
E|--10--12----------------------------------------|--

http://www.guitartabcreator.com
Guitar Tab Creator is intended to store guitar tab created through the tool. It currently does not support in-line text editing. Any text you place in here will be lost. If you need to comment on your tab, please use the "Tab Notes" section located below.