Sound will begin in 5 seconds

MODES triads- IDPLMAL

01234567891011121314151617181920212223
E
B
G
D
A
E
B
0 1 2 3 4 5 6 7 8 9 10 11 12 13 14 15 16 17 18 19 20 21 22 23
Song Science #1: How Pros Use 6 Chords to Write Hit Songs
(/) Slide Up  (\) Slide Down  (h) Hammer On  (p) Pull Off  (b) Bend (r) Release (v) Vibrato

Stave 1:

E|------------------------------------------------7--9--10--
B|--------------------------------------7--9--10------------
G|-----------------------------6--7--9----------------------
D|--------------------6--7--9-------------------------------
A|-----------5--7--9----------------------------------------
E|--5--7--9-------------------------------------------------

Stave 2:

E|------------------------------------------------7--8--10--
B|--------------------------------------7--8--10------------
G|-----------------------------5--7--9----------------------
D|--------------------5--7--9-------------------------------
A|-----------5--7--9----------------------------------------
E|--5--7--8-------------------------------------------------

Stave 3:

E|------------------------------------------------6--8--10--
B|--------------------------------------6--8--10------------
G|-----------------------------5--7--9----------------------
D|--------------------5--7--8-------------------------------
A|-----------5--7--8----------------------------------------
E|--5--6--8-------------------------------------------------

Stave 4:

E|-----------------------------------------------6--8--10--
B|--------------------------------------6--8--9------------
G|-----------------------------5--7--8---------------------
D|--------------------5--6--8------------------------------
A|-----------5--6--8---------------------------------------
E|--4--6--8------------------------------------------------

Stave 5:

E|------------------------------------------------7--9--10--
B|--------------------------------------7--8--10------------
G|-----------------------------6--7--9----------------------
D|--------------------5--7--9-------------------------------
A|-----------5--7--9----------------------------------------
E|--5--7--9-------------------------------------------------

Stave 6:

E|------------------------------------------------7--8--10--
B|--------------------------------------6--8--10------------
G|-----------------------------5--7--9----------------------
D|--------------------5--7--9-------------------------------
A|-----------5--7--8----------------------------------------
E|--5--7--8-------------------------------------------------

Stave 7:

E|------------------------------------------------6--8--10--
B|--------------------------------------6--8--10------------
G|-----------------------------5--7--8----------------------
D|--------------------5--7--8-------------------------------
A|-----------5--6--8----------------------------------------
E|--5--6--8-------------------------------------------------

http://www.guitartabcreator.com
Guitar Tab Creator is intended to store guitar tab created through the tool. It currently does not support in-line text editing. Any text you place in here will be lost. If you need to comment on your tab, please use the "Tab Notes" section located below.