Sound will begin in 5 seconds

Major Scale Worksheet

01234567891011121314151617181920212223
E
B
G
D
A
E
B
0 1 2 3 4 5 6 7 8 9 10 11 12 13 14 15 16 17 18 19 20 21 22 23
Song Science #1: How Pros Use 6 Chords to Write Hit Songs
(/) Slide Up  (\) Slide Down  (h) Hammer On  (p) Pull Off  (b) Bend (r) Release (v) Vibrato

Stave 1:

E|-----------------------------------------4--5--|--5--4-----------------------------------------
B|-----------------------------------5--7--------|--------7--5-----------------------------------
G|--------------------------4--6--7--------------|--------------7--6--4--------------------------
D|-----------------4--6--7-----------------------|-----------------------7--6--4-----------------
A|--------4--5--7--------------------------------|--------------------------------7--5--4--------
E|--5--7-----------------------------------------|-----------------------------------------7--5--

Stave 2:

E|----------------------------------------------7--8--|--8--7----------------------------------------------
B|---------------------------------------8--10--------|--------10--8---------------------------------------
G|-----------------------------7--9--10---------------|---------------10--9--7-----------------------------
D|-------------------7--9--10-------------------------|-------------------------10--9--7-------------------
A|---------7--8--10-----------------------------------|-----------------------------------10--8--7---------
E|--8--10---------------------------------------------|---------------------------------------------10--8--

Stave 3:

E|---------------------------------------------------------7--9--11--12--
B|-----------------------------------------------7--9--10----------------
G|-----------------------------------4--6--8--9--------------------------
D|--------------------------4--6--7--------------------------------------
A|-----------0--2--4--6--7-----------------------------------------------
E|--0--2--4--------------------------------------------------------------

http://www.guitartabcreator.com
Guitar Tab Creator is intended to store guitar tab created through the tool. It currently does not support in-line text editing. Any text you place in here will be lost. If you need to comment on your tab, please use the "Tab Notes" section located below.