Sound will begin in 5 seconds

"Gold on the Ceiling"- The Black Keys

Chords
01234567891011121314151617181920212223
E
B
G
D
A
E
B
0 1 2 3 4 5 6 7 8 9 10 11 12 13 14 15 16 17 18 19 20 21 22 23
Song Science #1: How Pros Use 6 Chords to Write Hit Songs
(/) Slide Up  (\) Slide Down  (h) Hammer On  (p) Pull Off  (b) Bend (r) Release (v) Vibrato

Stave 1:

E|------------------------------|------------------------|---------------------|--
B|------------------------------|------------------------|---------------------|--
G|------------------------------|------------------------|---------------------|--
D|------12--------10-----12\10--|-----7-------5-----7\5--|-----3-------5-------|--
A|--10------10\8------8---------|--5-----5\3-----3-------|--1-----1/3-----3\1--|--
E|------------------------------|------------------------|---------------------|--

Stave 2:

E|--------------------------------------
B|--------------------------------------
G|--------------------------------------
D|-----------------------------3-----5--
A|-----------------------------3-----5--
E|--3-----3--3-----3--3-----3-----------

Stave 3:

E|--------------------------------------------------------------------------
B|--------------------------------------------------------------------------
G|--------------------------------------------------------------------------
D|--5-----5--5-----5--5-----5--5-----5--3-----3--3-----3--3-----3--3-----3--
A|--5-----5--5-----5--5-----5--5-----5--3-----3--3-----3--3-----3--3-----3--
E|--3-----3--3-----3--3-----3--3-----3--1-----1--1-----1--1-----1--1-----1--

Stave 4:

E|--------------------------------------------------------------------
B|--------------------------------------------------------------------
G|--5-----5--5-----5--5-----5--5-----5--------------------------------
D|--5-----5--5-----5--5-----5--5-----5--5-----5--5-----5--5-----5--3--
A|--3-----3--3-----3--3-----3--3-----3--5-----5--5-----5--5-----5--3--
E|--------------------------------------3-----3--3-----3--3-----3--1--

Stave 5:

E|-------------------------------------------------------------------------------
B|-----------------------------------------------------------------------11------
G|--12v-----12--10------10-----12--10---------------------10--12-----12------12--
D|------------------12-----------------12--10-----10--12-------------------------
A|-------------------------------------------------------------------------------
E|-------------------------------------------------------------------------------

Stave 6:

E|-----------------------------------------------------------------------------------------------------
B|-----------------------------------------------------------------------------------------------------
G|-----------------------------------------------------------------------------------------------------
D|--3-----3--3-----3--3-----3--3-----3--2-----2--2-----2--2-----2--2-----2--5-----5--5-----5--5--5--5--
A|--3-----3--3-----3--3-----3--3-----3--2-----2--2-----2--2-----2--2-----2--5-----5--5-----5--5--5--5--
E|--1-----1--1-----1--1-----1--1-----1--0-----0--0-----0--0-----0--0-----0--3-----3--3-----3--3--3--3--

Stave 7:

E|--------------------------|--------------------
B|--------------------------|--------------------
G|--------5--5--------------|--------5--5--------
D|--3--3--5--5--5--5--3--5--|--3--3--5--5--3--5--
A|--3--3--3--3--5--5--3--5--|--3--3--3--3--3--5--
E|--1--1--------3--3--1--3--|--1--1--------1--3--

Stave 8:

E|----------------------------------------------------------------------------------------
B|----------------------------------------------------------------------------------------
G|--17b17p15------15------15--17-----17b17p15--------------------15-----17b17p15------15--
D|------------17------17-----------------------17--17-----15h17-------------------17------
A|----------------------------------------------------------------------------------------
E|----------------------------------------------------------------------------------------

Stave 9:

E|-----------------------------------
B|-----------------------------------
G|-----------------------------------
D|--17p15--17p15---------------------
A|----------------17p15------15------
E|-----------------------18------18--

http://www.guitartabcreator.com
Guitar Tab Creator is intended to store guitar tab created through the tool. It currently does not support in-line text editing. Any text you place in here will be lost. If you need to comment on your tab, please use the "Tab Notes" section located below.