Sound will begin in 5 seconds

"Fortunate Son"- Credence Clearwater Revival

Chords
01234567891011121314151617181920212223
E
B
G
D
A
E
B
0 1 2 3 4 5 6 7 8 9 10 11 12 13 14 15 16 17 18 19 20 21 22 23
Song Science #1: How Pros Use 6 Chords to Write Hit Songs
(/) Slide Up  (\) Slide Down  (h) Hammer On  (p) Pull Off  (b) Bend (r) Release (v) Vibrato

Stave 1:

E|--------------------------------------------
B|-----8--------6--------5--------3-----------
G|--------------------------------------------
D|--9--------7--------5--------3--------------
A|--------------------------------------1-----
E|-----------------------------------------3--

Stave 2:

E|--3--|--1--|--0--|--3--|--
B|--3--|--1--|--1--|--3--|--
G|--0--|--2--|--0--|--0--|--
D|--0--|--3--|--2--|--0--|--
A|--2--|--3--|--3--|--2--|--
E|--3--|--x--|--x--|--3--|--

Stave 3:

E|-----------------------------------------------------
B|-----------------------------------------------------
G|-----------------------------------5-----------------
D|--5-----------------3--------------5--------------5--
A|--5-----------------3--------------3--------------5--
E|--3-----------------1-----------------------------3--

Stave 4:

E|--3-----------------2-----------------0-----------------3-----------------
B|--3-----------------3-----------------1-----------------3-----------------
G|--0-----------------2-----------------0-----------------0-----------------
D|--0-----------------0-----------------2-----------------0-----------------
A|--2-----------------0-----------------3-----------------2-----------------
E|--3-----------------------------------------------------3-----------------

Stave 5:

E|--------------------------------------------------------------------------
B|--------------------------------------------------------------------------
G|--------------------7-----------------5-----------------------------------
D|--5-----------------7-----------------5-----------------5-----------------
A|--5-----------------5-----------------3-----------------5-----------------
E|--3-----------------------------------------------------3-----------------

Stave 6:

E|--------------------------------------------------
B|--6-----------5-----------5-----1-----------1--3--
G|--7-----------6-----------6-----2-----------2--4--
D|--------------------------------------------------
A|--------------------------------------------------
E|--------------------------------------------------

http://www.guitartabcreator.com
Guitar Tab Creator is intended to store guitar tab created through the tool. It currently does not support in-line text editing. Any text you place in here will be lost. If you need to comment on your tab, please use the "Tab Notes" section located below.