Sound will begin in 5 seconds

Enter Sandman- Metallica

Chords
01234567891011121314151617181920212223
E
B
G
D
A
E
B
0 1 2 3 4 5 6 7 8 9 10 11 12 13 14 15 16 17 18 19 20 21 22 23
Song Science #1: How Pros Use 6 Chords to Write Hit Songs
(/) Slide Up  (\) Slide Down  (h) Hammer On  (p) Pull Off  (b) Bend (r) Release (v) Vibrato

Stave 1:

E|--------------------|--
B|--------------------|--
G|--------------------|--
D|--------5-----------|--
A|-----7-----------7--|--
E|--0--------6--5-----|--

Stave 2:

E|-----------------------------|--
B|-----------------------------|--
G|-----------------------------|--
D|--2--2--2--2--2--2--2--------|--
A|--2--2--2--2--2--2--2-----7--|--
E|--0--0--0--0--0--0--0--------|--

Stave 3:

E|-----------------------------------|--
B|-----------------------------------|--
G|-----------------------------------|--
D|--2--2--------------2--2--2-----3--|--
A|--2--2-----7--------2--2--2-----3--|--
E|--0--0--------6-----0--0--0-----1--|--

Stave 4:

E|-----------------------------------
B|-----------------------------------
G|-----------------------------------
D|--2--2-----------------2--2-----3--
A|--2--2-----7-----------2--2-----3--
E|--0--0--------6--5-----0--0-----1--

Stave 5:

E|--------------------|--------------------------------
B|--------------------|--------------------------------
G|--------------------|--------------------------------
D|--2--2--------------|-----5-----4-----4--5--4-----2--
A|--2--2--7-----------|-----5-----4-----4--5--4-----2--
E|--0--0-----6--5-----|-----3--0--2--0--2--3--2-----0--

Stave 6:

E|-----
B|-----
G|--2--
D|--4--
A|--2--
E|--2--

Stave 7:

E|-----------------------|--
B|-----------------------|--
G|--------2--------------|--
D|-----4-----------4-----|--
A|-----------3--2--------|--
E|--2--------------------|--

Stave 8:

E|-----------|-----
B|-----------|-----
G|-----5--4--|-----
D|--4--5--4--|--2--
A|--4--3--2--|--2--
E|--2--------|--0--

Stave 9:

E|-----------------------
B|-----------------------
G|-----------2-----4-----
D|--2--5--2-----2-----5--
A|-----------------------
E|-----------------------

Stave 10:

E|-----------------------
B|-----------------------
G|-----------------2-----
D|--2--5--2--5--2-----2--
A|-----------------------
E|-----------------------

Stave 11:

E|--------------------------
B|--------------------------
G|--------------------------
D|--5-----4-----4--5--4--2--
A|--5-----4-----4--5--4--2--
E|--3--0--2--0--2--3--2--0--

Stave 12:

E|--------------------------
B|--------------------------
G|--------------------------
D|--2--2--2--2--2--2--2--3--
A|--2--2--2--2--2--2--2--3--
E|--0--0--0--0--0--0--0--1--

http://www.guitartabcreator.com
Guitar Tab Creator is intended to store guitar tab created through the tool. It currently does not support in-line text editing. Any text you place in here will be lost. If you need to comment on your tab, please use the "Tab Notes" section located below.