Tremolo Lesson with example in music

Chords

01234567891011121314151617181920212223
E
B
G
D
A
E
B
0 1 2 3 4 5 6 7 8 9 10 11 12 13 14 15 16 17 18 19 20 21 22 23
(/) Slide Up  (\) Slide Down  (h) Hammer On  (p) Pull Off  (b) Bend (r) Release (v) Vibrato

Tremolo Lesson: Repeat as much as possible

E|-------------------------------------------------------------------------------------------------
B|-------------------------------------------------------------------------------------------------
G|-------------------------------------------------------------------------------------------------
D|---------5-5-5-5---------5-5-5-5-----------------------------------------------------------------
A|-3-3-3-3---------3-3-3-3-----------------6-6-6-6---------6-6-6-6---------8-8-8-8---------8-8-8-8-
E|---------------------------------4-4-4-4---------4-4-4-4---------6-6-6-6---------6-6-6-6---------

Continuation of Tremolo Lesson

E|-----------------------------3-
B|-----------------------------4-
G|-----------------------------5-
D|-----------------------------5-
A|---------5-5-5-5-------5-5-5-3-
E|-3-3-3-3---------3-3-3---------

The Light that Blinds Tremolo Part

E|---------------------------------------------------------------------------------------------------------
B|---------------------------------------------------------------------------------------------------------
G|---------------------------------------------------------------------------------------------------------
D|---------------------------------------------------------------------------------------------------------
A|-----------------10-10-10-10---------11-11-11-11-----------------5-5-5-5---------3-3-3-3-3-3-3-3---------
E|-8-8-8-8-6-6-6-6-------------8-8-8-8-------------4-4-4-4-6-6-6-6---------1-1-1-1-----------------3-3-3-3-

Stave 4:

E|---------------------------------
B|---------------------------------
G|---------------------------------
D|---------------------------------
A|-3-3-3-3-6-6-6-6-5-5-5-5---------
E|-------------------------6-6-6-6-

							http://www.guitartabcreator.com
genre
Instruments
{"strings":[[[".",".",".",".",".",".",".",".",".",".",".",".",".",".",".",".",".",".",".",".",".",".",".",".",".",".",".",".",".",".",".",".",".",".",".",".",".",".",".",".",".",".",".",".",".",".",".","."],[".",".",".",".",".",".",".",".",".",".",".",".",".",".",".",".",".",".",".",".",".",".",".",".",".",".",".",".",".",".",".",".",".",".",".",".",".",".",".",".",".",".",".",".",".",".",".","."],[".",".",".",".",".",".",".",".",".",".",".",".",".",".",".",".",".",".",".",".",".",".",".",".",".",".",".",".",".",".",".",".",".",".",".",".",".",".",".",".",".",".",".",".",".",".",".","."],[".",".",".",".",5,5,5,5,".",".",".",".",5,5,5,5,".",".",".",".",".",".",".",".",".",".",".",".",".",".",".",".",".",".",".",".",".",".",".",".",".",".",".",".",".",".",".","."],[3,3,3,3,".",".",".",".",3,3,3,3,".",".",".",".",".",".",".",".",6,6,6,6,".",".",".",".",6,6,6,6,".",".",".",".",8,8,8,8,".",".",".",".",8,8,8,8],[".",".",".",".",".",".",".",".",".",".",".",".",".",".",".",".",4,4,4,4,".",".",".",".",4,4,4,4,".",".",".",".",6,6,6,6,".",".",".",".",6,6,6,6,".",".",".","."]],[[".",".",".",".",".",".",".",".",".",".",".",".",".",".",3],[".",".",".",".",".",".",".",".",".",".",".",".",".",".",4],[".",".",".",".",".",".",".",".",".",".",".",".",".",".",5],[".",".",".",".",".",".",".",".",".",".",".",".",".",".",5],[".",".",".",".",5,5,5,5,".",".",".",5,5,5,3],[3,3,3,3,".",".",".",".",3,3,3,".",".",".","."]],[[".",".",".",".",".",".",".",".",".",".",".",".",".",".",".",".",".",".",".",".",".",".",".",".",".",".",".",".",".",".",".",".",".",".",".",".",".",".",".",".",".",".",".",".",".",".",".","."],[".",".",".",".",".",".",".",".",".",".",".",".",".",".",".",".",".",".",".",".",".",".",".",".",".",".",".",".",".",".",".",".",".",".",".",".",".",".",".",".",".",".",".",".",".",".",".","."],[".",".",".",".",".",".",".",".",".",".",".",".",".",".",".",".",".",".",".",".",".",".",".",".",".",".",".",".",".",".",".",".",".",".",".",".",".",".",".",".",".",".",".",".",".",".",".","."],[".",".",".",".",".",".",".",".",".",".",".",".",".",".",".",".",".",".",".",".",".",".",".",".",".",".",".",".",".",".",".",".",".",".",".",".",".",".",".",".",".",".",".",".",".",".",".","."],[".",".",".",".",".",".",".",".",10,10,10,10,".",".",".",".",11,11,11,11,".",".",".",".",".",".",".",".",5,5,5,5,".",".",".",".",3,3,3,3,3,3,3,3,".",".",".","."],[8,8,8,8,6,6,6,6,".",".",".",".",8,8,8,8,".",".",".",".",4,4,4,4,6,6,6,6,".",".",".",".",1,1,1,1,".",".",".",".",".",".",".",".",3,3,3,3]],[[".",".",".",".",".",".",".",".",".",".",".",".",".",".",".","."],[".",".",".",".",".",".",".",".",".",".",".",".",".",".",".","."],[".",".",".",".",".",".",".",".",".",".",".",".",".",".",".","."],[".",".",".",".",".",".",".",".",".",".",".",".",".",".",".","."],[3,3,3,3,6,6,6,6,5,5,5,5,".",".",".","."],[".",".",".",".",".",".",".",".",".",".",".",".",6,6,6,6]]],"numberofstrings":6,"notes":["E","B","G","D","A","E","B"],"capo":0,"stringnotes":["E4","B3","G3","D3","A2","E2"],"comments":["Tremolo Lesson: Repeat as much as possible","Continuation of Tremolo Lesson","The Light that Blinds Tremolo Part","Stave 4:"],"timing":[[null,null,null,null,null,null,null,null,null,null,null,null,null,null,null,null,null,null,null,null,null,null,null,null,null,null,null,null,null,null,null,null,null,null,null,null,null,null,null,null,null,null,null,null,null,null,null,null,null,null,null],[null,null,null,null,null,null,null,null,null,null,null,null,null,null,null,null],[null,null,null,null,null,null,null,null,null,null,null,null,null,null,null,null,null,null,null,null,null,null,null,null,null,null,null,null,null,null,null,null,null,null,null,null,null,null,null,null,null,null,null,null,null,null,null,null],[null,null,null,null,null,null,null,null,null,null,null,null,null,null,null,null]],"timingvisible":false,"tabcounter":16,"stave":3,"totalstaves":4,"instrument":"6guitar","selectedtuning":"6_standard","version":"13"}
Submitted by austinr100 on Mon, 2020-06-29 20:32