String Arpeggios in D Major

Chords

01234567891011121314151617181920212223
E
B
G
D
A
E
B
0 1 2 3 4 5 6 7 8 9 10 11 12 13 14 15 16 17 18 19 20 21 22 23
(/) Slide Up  (\) Slide Down  (h) Hammer On  (p) Pull Off  (b) Bend (r) Release (v) Vibrato

Stave 1:

E|--14--10------10----------------------------------------------10------10--14--10------10------------------------------------------
B|----------------------------------------------------------------------------------14------14--10--14--10------10------------------
G|----------14------14--11--14--11------11------11--14--11--14------14--------------------------------------------------------------
D|----------------------------------12------12--------------------------------------------------------------14------14--11--14--11--
A|----------------------------------------------------------------------------------------------------------------------------------
E|----------------------------------------------------------------------------------------------------------------------------------

Stave 2:

E|--------------------------------------------------10--7------7---------------------------------------7------7--10--7------7------
B|------------------------------10------10--14--10----------------------------------------------------------------------10-----10--
G|---------------------------------------------------------11-----11--7--11--7-----7-----7--11--7--11-----11-----------------------
D|------11------11--14--11--14------14------------------------------------------9-----9--------------------------------------------
A|--12------12---------------------------------------------------------------------------------------------------------------------
E|---------------------------------------------------------------------------------------------------------------------------------

Stave 3:

E|---------------------------------------------------------------------------------------------------------------------------------
B|--7--10--7------7---------------------------------------7------7--10--7--12--8------8-----------------------------------------8--
G|---------------------------------------------------------------------------------------------------------------------------------
D|------------11-----11--7--11--7-----7-----7--11--7--11-----11-------------------12-----12--9--12--9------9------9--12--9--12-----
A|---------------------------------9-----9-------------------------------------------------------------10-----10-------------------
E|---------------------------------------------------------------------------------------------------------------------------------

Stave 4:

E|-----------------------------------------------------------------------------------------------------------------------------------
B|------8--12--8--10--7------7---------------------------------7------7--10--7--12--8------8-----------------------------------------
G|-----------------------------------------------------------------------------------------------------------------------------------
D|--12-------------------11-----11--7--11--7-----7--11--7--11-----11-------------------12-----12--9--12--9------9------9--12--9--12--
A|--------------------------------------------9-------------------------------------------------------------10-----10----------------
E|-----------------------------------------------------------------------------------------------------------------------------------

Stave 5:

E|------------------------------------------------------------------------------------------------------------------
B|--8------8--12--8--12--14--10------10----------------------------------------------10------10--14--10--14--15-----
G|------------------------------------------------------------------------------------------------------------------
D|-----12------------------------14------14--11--14--11------11------11--14--11--14------14-------------------------
A|-------------------------------------------------------12------12-------------------------------------------------
E|------------------------------------------------------------------------------------------------------------------

							http://www.guitartabcreator.com
Instruments
{"strings":[[[14,10,".",10,".",".",".",".",".",".",".",".",".",".",".",10,".",10,14,10,".",10,".",".",".",".",".",".",".",".",".","."],[".",".",".",".",".",".",".",".",".",".",".",".",".",".",".",".",".",".",".",".",14,".",14,10,14,10,".",10,".",".",".","."],[".",".",14,".",14,11,14,11,".",11,".",11,14,11,14,".",14,".",".",".",".",".",".",".",".",".",".",".",".",".",".","."],[".",".",".",".",".",".",".",".",12,".",12,".",".",".",".",".",".",".",".",".",".",".",".",".",".",".",14,".",14,11,14,11],[".",".",".",".",".",".",".",".",".",".",".",".",".",".",".",".",".",".",".",".",".",".",".",".",".",".",".",".",".",".",".","."],[".",".",".",".",".",".",".",".",".",".",".",".",".",".",".",".",".",".",".",".",".",".",".",".",".",".",".",".",".",".",".","."]],[[".",".",".",".",".",".",".",".",".",".",".",".",10,7,".",7,".",".",".",".",".",".",".",".",".",".",".",7,".",7,10,7,".",7,"."],[".",".",".",".",".",".",".",10,".",10,14,10,".",".",".",".",".",".",".",".",".",".",".",".",".",".",".",".",".",".",".",".",10,".",10],[".",".",".",".",".",".",".",".",".",".",".",".",".",".",11,".",11,7,11,7,".",7,".",7,11,7,11,".",11,".",".",".",".",".","."],[".",11,".",11,14,11,14,".",14,".",".",".",".",".",".",".",".",".",".",".",9,".",9,".",".",".",".",".",".",".",".",".",".",".","."],[12,".",12,".",".",".",".",".",".",".",".",".",".",".",".",".",".",".",".",".",".",".",".",".",".",".",".",".",".",".",".",".",".",".","."],[".",".",".",".",".",".",".",".",".",".",".",".",".",".",".",".",".",".",".",".",".",".",".",".",".",".",".",".",".",".",".",".",".",".","."]],[[".",".",".",".",".",".",".",".",".",".",".",".",".",".",".",".",".",".",".",".",".",".",".",".",".",".",".",".",".",".",".",".",".",".",".",".","."],[7,10,7,".",7,".",".",".",".",".",".",".",".",".",".",".",7,".",7,10,7,12,8,".",8,".",".",".",".",".",".",".",".",".",".",".",8],[".",".",".",".",".",".",".",".",".",".",".",".",".",".",".",".",".",".",".",".",".",".",".",".",".",".",".",".",".",".",".",".",".",".",".",".","."],[".",".",".",11,".",11,7,11,7,".",7,".",7,11,7,11,".",11,".",".",".",".",".",12,".",12,9,12,9,".",9,".",9,12,9,12,"."],[".",".",".",".",".",".",".",".",".",9,".",9,".",".",".",".",".",".",".",".",".",".",".",".",".",".",".",".",".",10,".",10,".",".",".",".","."],[".",".",".",".",".",".",".",".",".",".",".",".",".",".",".",".",".",".",".",".",".",".",".",".",".",".",".",".",".",".",".",".",".",".",".",".","."]],[[".",".",".",".",".",".",".",".",".",".",".",".",".",".",".",".",".",".",".",".",".",".",".",".",".",".",".",".",".",".",".",".",".",".",".",".","."],[".",8,12,8,10,7,".",7,".",".",".",".",".",".",".",".",".",7,".",7,10,7,12,8,".",8,".",".",".",".",".",".",".",".",".",".","."],[".",".",".",".",".",".",".",".",".",".",".",".",".",".",".",".",".",".",".",".",".",".",".",".",".",".",".",".",".",".",".",".",".",".",".",".","."],[12,".",".",".",".",".",11,".",11,7,11,7,".",7,11,7,11,".",11,".",".",".",".",".",12,".",12,9,12,9,".",9,".",9,12,9,12],[".",".",".",".",".",".",".",".",".",".",".",".",9,".",".",".",".",".",".",".",".",".",".",".",".",".",".",".",".",".",10,".",10,".",".",".","."],[".",".",".",".",".",".",".",".",".",".",".",".",".",".",".",".",".",".",".",".",".",".",".",".",".",".",".",".",".",".",".",".",".",".",".",".","."]],[[".",".",".",".",".",".",".",".",".",".",".",".",".",".",".",".",".",".",".",".",".",".",".",".",".",".",".",".","_"],[8,".",8,12,8,12,14,10,".",10,".",".",".",".",".",".",".",".",".",".",".",10,".",10,14,10,14,15,"_"],[".",".",".",".",".",".",".",".",".",".",".",".",".",".",".",".",".",".",".",".",".",".",".",".",".",".",".",".","_"],[".",12,".",".",".",".",".",".",14,".",14,11,14,11,".",11,".",11,14,11,14,".",14,".",".",".",".",".","_"],[".",".",".",".",".",".",".",".",".",".",".",".",".",".",12,".",12,".",".",".",".",".",".",".",".",".",".",".","_"],[".",".",".",".",".",".",".",".",".",".",".",".",".",".",".",".",".",".",".",".",".",".",".",".",".",".",".",".","_"]]],"numberofstrings":6,"notes":["E","B","G","D","A","E","B"],"capo":0,"stringnotes":["E4","B3","G3","D3","A2","E2"],"comments":["Stave 1:","Stave 2:","Stave 3:","Stave 4:","Stave 5:"],"timing":[[null,null,null,null,null,null,null,null,null,null,null,null,null,null,null,null,null,null,null,null,null,null,null,null,null,null,null,null,null,null,null,null],[null,null,null,null,null,null,null,null,null,null,null,null,null,null,null,null,null,null,null,null,null,null,null,null,null,null,null,null,null,null,null,null,null,null,null],[null,null,null,null,null,null,null,null,null,null,null,null,null,null,null,null,null,null,null,null,null,null,null,null,null,null,null,null,null,null,null,null,null,null,null,null,null],[null,null,null,null,null,null,null,null,null,null,null,null,null,null,null,null,null,null,null,null,null,null,null,null,null,null,null,null,null,null,null,null,null,null,null,null,null],[null,null,null,null,null,null,null,null,null,null,null,null,null,null,null,null,null,null,null,null,null,null,null,null,null,null,null,null]],"timingvisible":false,"tabcounter":29,"stave":4,"totalstaves":5,"instrument":"6guitar","selectedtuning":"6_standard","version":"13"}
Submitted by austinr100 on Tue, 2020-06-02 16:26