How to Break out of the Box - Part 2

Chords

01234567891011121314151617181920212223
E
B
G
D
A
E
B
0 1 2 3 4 5 6 7 8 9 10 11 12 13 14 15 16 17 18 19 20 21 22 23
(/) Slide Up  (\) Slide Down  (h) Hammer On  (p) Pull Off  (b) Bend (r) Release (v) Vibrato

Example 1

E|-----------------------------------5-7-8-7-5-----------------------------------
B|-----------------------------5-7-8-----------8-7-5-----------------------------
G|---------------------2-4-5-7-----------------------7-5-4-2---------------------
D|---------------2-4-5---------------------------------------5-4-2---------------
A|---------2-3-5---------------------------------------------------5-3-2---------
E|-0-2-3-5---------------------------------------------------------------5-3-2-0-

Example 2

E|--------------------------------------12---------------------------------------
B|-----------------------------12-13-15----15-13-12------------------------------
G|------------------9-11-12/14----------------------14-12-11\9-------------------
D|--------7-9-10-12--------------------------------------------12-10-9-----------
A|-7-9-10--------------------------------------------------------------12-10-9\7-
E|-------------------------------------------------------------------------------

Example 3

E|-------------------------------------------------------19-20-22-20-19-------------------------------------------------------
B|----------------------------------------------19-20-22----------------22-20-19----------------------------------------------
G|----------------------------------16-17-19/21----------------------------------21-19-17\16----------------------------------
D|----------------------14-16-17/19----------------------------------------------------------19-17-16\14----------------------
A|----------12-14-15/17----------------------------------------------------------------------------------17-15-14-------------
E|-12-14-15-------------------------------------------------------------------------------------------------------17-15-14\12-

Example 4

E|-7h8h10p8p7----------------------------------------------------------------------------------------------------
B|------------10-8-7-8-10/12-12-10-8-----------------------------------------------------------------------------
G|-----------------------------------11-9-7-9-11/12-11-9---------------------------------------------------------
D|-------------------------------------------------------12-10-9-10-12/14-12-10----------------------------------
A|------------------------------------------------------------------------------14-12-10-12-14/15-14-12----------
E|------------------------------------------------------------------------------------------------------15-14-12-

							http://www.guitartabcreator.com
Instruments
{"strings":[[[".",".",".",".",".",".",".",".",".",".",".",".",".",".",".",".",".",5,7,8,7,5,".",".",".",".",".",".",".",".",".",".",".",".",".",".",".",".","."],[".",".",".",".",".",".",".",".",".",".",".",".",".",".",5,7,8,".",".",".",".",".",8,7,5,".",".",".",".",".",".",".",".",".",".",".",".",".","."],[".",".",".",".",".",".",".",".",".",".",2,4,5,7,".",".",".",".",".",".",".",".",".",".",".",7,5,4,2,".",".",".",".",".",".",".",".",".","."],[".",".",".",".",".",".",".",2,4,5,".",".",".",".",".",".",".",".",".",".",".",".",".",".",".",".",".",".",".",5,4,2,".",".",".",".",".",".","."],[".",".",".",".",2,3,5,".",".",".",".",".",".",".",".",".",".",".",".",".",".",".",".",".",".",".",".",".",".",".",".",".",5,3,2,".",".",".","."],[0,2,3,5,".",".",".",".",".",".",".",".",".",".",".",".",".",".",".",".",".",".",".",".",".",".",".",".",".",".",".",".",".",".",".",5,3,2,0]],[[".",".",".",".",".",".",".",".",".",".",".",".",".",".",".",12,".",".",".",".",".",".",".",".",".",".",".",".",".",".",".","."],[".",".",".",".",".",".",".",".",".",".",".",".",12,13,15,".",15,13,12,".",".",".",".",".",".",".",".",".",".",".",".","."],[".",".",".",".",".",".",".",9,11,12,"/",14,".",".",".",".",".",".",".",14,12,11,"\\",9,".",".",".",".",".",".",".","."],[".",".",".",7,9,10,12,".",".",".",".",".",".",".",".",".",".",".",".",".",".",".",".",".",12,10,9,".",".",".",".","."],[7,9,10,".",".",".",".",".",".",".",".",".",".",".",".",".",".",".",".",".",".",".",".",".",".",".",".",12,10,9,"\\",7],[".",".",".",".",".",".",".",".",".",".",".",".",".",".",".",".",".",".",".",".",".",".",".",".",".",".",".",".",".",".",".","."]],[[".",".",".",".",".",".",".",".",".",".",".",".",".",".",".",".",".",".",".",".",".",19,20,22,20,19,".",".",".",".",".",".",".",".",".",".",".",".",".",".",".",".",".",".",".",".","."],[".",".",".",".",".",".",".",".",".",".",".",".",".",".",".",".",".",".",19,20,22,".",".",".",".",".",22,20,19,".",".",".",".",".",".",".",".",".",".",".",".",".",".",".",".",".","."],[".",".",".",".",".",".",".",".",".",".",".",".",".",16,17,19,"/",21,".",".",".",".",".",".",".",".",".",".",".",21,19,17,"\\",16,".",".",".",".",".",".",".",".",".",".",".",".","."],[".",".",".",".",".",".",".",".",14,16,17,"/",19,".",".",".",".",".",".",".",".",".",".",".",".",".",".",".",".",".",".",".",".",".",19,17,16,"\\",14,".",".",".",".",".",".",".","."],[".",".",".",12,14,15,"/",17,".",".",".",".",".",".",".",".",".",".",".",".",".",".",".",".",".",".",".",".",".",".",".",".",".",".",".",".",".",".",".",17,15,14,".",".",".",".","."],[12,14,15,".",".",".",".",".",".",".",".",".",".",".",".",".",".",".",".",".",".",".",".",".",".",".",".",".",".",".",".",".",".",".",".",".",".",".",".",".",".",".",17,15,14,"\\",12]],[[7,"h",8,"h",10,"p",8,"p",7,".",".",".",".",".",".",".",".",".",".",".",".",".",".",".",".",".",".",".",".",".",".",".",".",".",".",".",".",".",".",".",".",".",".",".",".",".",".",".","."],[".",".",".",".",".",".",".",".",".",10,8,7,8,10,"/",12,12,10,8,".",".",".",".",".",".",".",".",".",".",".",".",".",".",".",".",".",".",".",".",".",".",".",".",".",".",".",".",".","."],[".",".",".",".",".",".",".",".",".",".",".",".",".",".",".",".",".",".",".",11,9,7,9,11,"/",12,11,9,".",".",".",".",".",".",".",".",".",".",".",".",".",".",".",".",".",".",".",".","."],[".",".",".",".",".",".",".",".",".",".",".",".",".",".",".",".",".",".",".",".",".",".",".",".",".",".",".",".",12,10,9,10,12,"/",14,12,10,".",".",".",".",".",".",".",".",".",".",".","."],[".",".",".",".",".",".",".",".",".",".",".",".",".",".",".",".",".",".",".",".",".",".",".",".",".",".",".",".",".",".",".",".",".",".",".",".",".",14,12,10,12,14,"/",15,14,12,".",".","."],[".",".",".",".",".",".",".",".",".",".",".",".",".",".",".",".",".",".",".",".",".",".",".",".",".",".",".",".",".",".",".",".",".",".",".",".",".",".",".",".",".",".",".",".",".",".",15,14,12]]],"numberofstrings":6,"notes":["E","B","G","D","A","E","B"],"capo":0,"stringnotes":["E4","B3","G3","D3","A2","E2"],"comments":["Example 1","Example 2","Example 3","Example 4"],"timing":[["W","W","W","W","W","W","W","W","W","W","W","W","W","W","W","W","W","W","W","W","W","W","W","W","W","W","W","W","W","W","W","W","W","W","W","W","W","W","W"],["W","W","W","W","W","W","W","W","W","W",null,"W","W","W","W","W","W","W","W","W","W","W",null,"W","W","W","W","W","W","W",null,"W"],["W","W","W","W","W","W",null,"W","W","W","W",null,"W","W","W","W",null,"W","W","W","W","W","W","W","W","W","W","W","W","W","W","W",null,"W","W","W","W",null,"W","W","W","W","W","W","W",null,"W"],["W",null,"W",null,"W",null,"W",null,"W","W","W","W","W","W",null,"W","W","W","W","W","W","W","W","W","W","W","W","W","W","W","W","W","W",null,"W","W","W","W","W","W","W","W",null,"W","W","W","W","W","W"]],"timingvisible":false,"tabcounter":49,"stave":3,"totalstaves":4,"instrument":"6guitar","selectedtuning":"6_standard","version":"13"}
Submitted by austinr100 on Tue, 2020-06-30 14:32