new camptown races

Chords

01234567891011121314151617181920212223
E
B
G
D
A
E
B
0 1 2 3 4 5 6 7 8 9 10 11 12 13 14 15 16 17 18 19 20 21 22 23
(/) Slide Up  (\) Slide Down  (h) Hammer On  (p) Pull Off  (b) Bend (r) Release (v) Vibrato

Capo Fret 3

Stave 1:

E|--------------------------------------------------------------------------------------------------
B|--------------------------------------------------------------------------------------------------
G|--------------------------------0-----0--2--0-----------------------------0-----------------------
D|-----------------------0--2--4-----4-----------2--0--------------0--2--4-----2--0-----0--1--2--1--
A|-----------------0--2--------------------------------2--3--2--3-----------------------------------
E|--0--2--3--2--3-----------------------------------------------------------------------------------

Stave 2:

E|---------------------------------------------------------------------------------------------------
B|----------------------------------------0----------------------------------------------------------
G|--------0--------------------0--0--1h2-----2--0----------------------------------------------------
D|--2--4-----0--1--2--1--2--4----------------------4--0--2-----0-------0--------------------------0--
A|----------------------------------------------------------4-----4/5-----2--0--------------0--2-----
E|------------------------------------------------------------------------------2--3--2--3-----------

Stave 3:

E|--------------------------------------------------------------------0-------2--3--0--------0--------
B|-----------------------------------------------------------------------3/5-----------3--0-----3--0--
G|--------0--0--2--0-----------------------------0----------------------------------------------------
D|--2--4--------------2--0--------------0--2--4-----2--0-----0--1--2----------------------------------
A|--------------------------2--3--2--3----------------------------------------------------------------
E|----------------------------------------------------------------------------------------------------

Stave 4:

E|------------------------------------------------0--3p2-----0--5/7--6p5-----0----------0--2--3--0-------------
B|-----1-----0---------------------------------0----------3---------------8-----0--3/5--------------3--0-------
G|--0-----2-----0--2p0-----2--0---------------------------------------------------------------------------3\2--
D|----------------------4--------------0--1h2------------------------------------------------------------------
A|-------------------------------------------------------------------------------------------------------------
E|-------------------------------------------------------------------------------------------------------------

Stave 5:

E|------------------------------------------------------------------------------------------------------------
B|------------------------------------------------------------------------------------------------------------
G|--0------------------------------------------------------------------------------------------------------0--
D|-----2p0--1p0--1p0-----0--2-------------------------------------------------------0-------------0--2--0-----
A|--------------------3--------3/4--0----------0----------0----------------0--2--0-----2--0--1h2--------------
E|-------------------------------------0--3/5-----0--3/5-----3--0--0--1/2-------------------------------------

Stave 6:

E|-------------------------------------------------------------------------0-------0--2--3--0--------0----------------------
B|------------------3---------------------------------------------------------3/5--------------3--0-----3--0----------------
G|----------0--2/4-----4\2--0-----------------------------0---------------------------------------------------3\2--0--------
D|--0--4/5---------------------2--0--------------0--2--4-----2--0--0--1h2---------------------------------------------2--0--
A|-----------------------------------2--3--2--3-----------------------------------------------------------------------------
E|--------------------------------------------------------------------------------------------------------------------------

Stave 7:

E|-----------------------------------------
B|-----------------------------------------
G|--0--------------------------0--2-----0--
D|-----2--0-----0-----0--2--4--------4-----
A|-----------4-----4-----------------------
E|-----------------------------------------

							http://www.guitartabcreator.com
genre
Instruments
{"strings":[[[".",".",".",".",".",".",".",".",".",".",".",".",".",".",".",".",".",".",".",".",".",".",".",".",".",".",".","_",".",".",".","."],[".",".",".",".",".",".",".",".",".",".",".",".",".",".",".",".",".",".",".",".",".",".",".",".",".",".",".","_",".",".",".","."],[".",".",".",".",".",".",".",".",".",".",0,".",0,2,0,".",".",".",".",".",".",".",".",".",0,".",".","_",".",".",".","."],[".",".",".",".",".",".",".",0,2,4,".",4,".",".",".",2,0,".",".",".",".",0,2,4,".",2,0,"_",0,1,2,1],[".",".",".",".",".",0,2,".",".",".",".",".",".",".",".",".",".",2,3,2,3,".",".",".",".",".",".","_",".",".",".","."],[0,2,3,2,3,".",".",".",".",".",".",".",".",".",".",".",".",".",".",".",".",".",".",".",".",".",".","_",".",".",".","."]],[[".",".",".",".",".",".",".",".",".",".",".",".",".",".",".",".",".",".",".",".",".",".",".",".",".",".",".",".",".",".",".",".",".",".","."],[".",".",".",".",".",".",".",".",".",".",".",".",".",".",0,".",".",".",".",".",".",".",".",".",".",".",".",".",".",".",".",".",".",".","."],[".",".",0,".",".",".",".",".",".",0,0,1,"h",2,".",2,0,".",".",".",".",".",".",".",".",".",".",".",".",".",".",".",".",".","."],[2,4,".",0,1,2,1,2,4,".",".",".",".",".",".",".",".",4,0,2,".",0,".",".",".",0,".",".",".",".",".",".",".",".",0],[".",".",".",".",".",".",".",".",".",".",".",".",".",".",".",".",".",".",".",".",4,".",4,"/",5,".",2,0,".",".",".",".",0,2,"."],[".",".",".",".",".",".",".",".",".",".",".",".",".",".",".",".",".",".",".",".",".",".",".",".",".",".",".",".",2,3,2,3,".",".","."]],[[".",".",".",".",".",".",".",".",".",".",".",".",".",".",".",".",".",".","_",".",".",".",0,".",".",".",2,3,0,".",".",0,".","."],[".",".",".",".",".",".",".",".",".",".",".",".",".",".",".",".",".",".","_",".",".",".",".",3,"/",5,".",".",".",3,0,".",3,0],[".",".",0,0,2,0,".",".",".",".",".",".",".",".",".",0,".",".","_",".",".",".",".",".",".",".",".",".",".",".",".",".",".","."],[2,4,".",".",".",".",2,0,".",".",".",".",0,2,4,".",2,0,"_",0,1,2,".",".",".",".",".",".",".",".",".",".",".","."],[".",".",".",".",".",".",".",".",2,3,2,3,".",".",".",".",".",".","_",".",".",".",".",".",".",".",".",".",".",".",".",".",".","."],[".",".",".",".",".",".",".",".",".",".",".",".",".",".",".",".",".",".","_",".",".",".",".",".",".",".",".",".",".",".",".",".",".","."]],[[".",".",".",".",".",".",".",".",".",".",".","_","_",".",".",".",".",".",0,3,"p",2,".",0,5,"/",7,6,"p",5,".",0,".",".",".",".",0,2,3,0,".",".",".",".","."],[".",1,".",0,".",".",".",".",".",".",".","_","_",".",".",".",".",0,".",".",".",".",3,".",".",".",".",".",".",".",8,".",0,3,"/",5,".",".",".",".",3,0,".",".","."],[0,".",2,".",0,2,"p",0,".",2,0,"_","_",".",".",".",".",".",".",".",".",".",".",".",".",".",".",".",".",".",".",".",".",".",".",".",".",".",".",".",".",".",3,"\\",2],[".",".",".",".",".",".",".",".",4,".",".","_","_",0,1,"h",2,".",".",".",".",".",".",".",".",".",".",".",".",".",".",".",".",".",".",".",".",".",".",".",".",".",".",".","."],[".",".",".",".",".",".",".",".",".",".",".","_","_",".",".",".",".",".",".",".",".",".",".",".",".",".",".",".",".",".",".",".",".",".",".",".",".",".",".",".",".",".",".",".","."],[".",".",".",".",".",".",".",".",".",".",".","_","_",".",".",".",".",".",".",".",".",".",".",".",".",".",".",".",".",".",".",".",".",".",".",".",".",".",".",".",".",".",".",".","."]],[[".",".",".",".",".",".",".",".",".",".",".",".",".",".",".",".",".",".",".",".",".",".",".",".",".",".",".",".",".",".",".",".",".",".",".",".",".",".",".",".",".",".",".",".",".","."],[".",".",".",".",".",".",".",".",".",".",".",".",".",".",".",".",".",".",".",".",".",".",".",".",".",".",".",".",".",".",".",".",".",".",".",".",".",".",".",".",".",".",".",".",".","."],[0,".",".",".",".",".",".",".",".",".",".",".",".",".",".",".",".",".",".",".",".",".",".",".",".",".",".",".",".",".",".",".",".",".",".",".",".",".",".",".",".",".",".",".",".",0],[".",2,"p",0,1,"p",0,1,"p",0,".",0,2,".",".",".",".",".",".",".",".",".",".",".",".",".",".",".",".",".",".",".",".",".",".",".",0,".",".",".",".",".",0,2,0,"."],[".",".",".",".",".",".",".",".",".",".",3,".",".",3,"/",4,0,".",".",".",".",0,".",".",".",".",0,".",".",".",".",".",".",0,2,0,".",2,0,1,"h",2,".",".",".","."],[".",".",".",".",".",".",".",".",".",".",".",".",".",".",".",".",".",0,3,"/",5,".",0,3,"/",5,".",3,0,0,1,"/",2,".",".",".",".",".",".",".",".",".",".",".",".","."]],[[".",".",".",".",".",".",".",".",".",".",".",".",".",".",".",".",".",".",".",".",".",".",".",".",".",".",".",".",".",0,".",".",".",0,2,3,0,".",".",0,".",".",".",".",".",".",".","."],[".",".",".",".",".",".",".",".",3,".",".",".",".",".",".",".",".",".",".",".",".",".",".",".",".",".",".",".",".",".",3,"/",5,".",".",".",".",3,0,".",3,0,".",".",".",".",".","."],[".",".",".",".",0,2,"/",4,".",4,"\\",2,0,".",".",".",".",".",".",".",".",".",0,".",".",".",".",".",".",".",".",".",".",".",".",".",".",".",".",".",".",".",3,"\\",2,0,".","."],[0,4,"/",5,".",".",".",".",".",".",".",".",".",2,0,".",".",".",".",0,2,4,".",2,0,0,1,"h",2,".",".",".",".",".",".",".",".",".",".",".",".",".",".",".",".",".",2,0],[".",".",".",".",".",".",".",".",".",".",".",".",".",".",".",2,3,2,3,".",".",".",".",".",".",".",".",".",".",".",".",".",".",".",".",".",".",".",".",".",".",".",".",".",".",".",".","."],[".",".",".",".",".",".",".",".",".",".",".",".",".",".",".",".",".",".",".",".",".",".",".",".",".",".",".",".",".",".",".",".",".",".",".",".",".",".",".",".",".",".",".",".",".",".",".","."]],[[".",".",".",".",".",".",".",".",".",".",".",".","."],[".",".",".",".",".",".",".",".",".",".",".",".","."],[0,".",".",".",".",".",".",".",".",0,2,".",0],[".",2,0,".",0,".",0,2,4,".",".",4,"."],[".",".",".",4,".",4,".",".",".",".",".",".","."],[".",".",".",".",".",".",".",".",".",".",".",".","."]]],"numberofstrings":6,"notes":["E","B","G","D","A","E","B"],"capo":"3","stringnotes":["E4","B3","G3","D3","A2","E2"],"comments":["Stave 1:","Stave 2:","Stave 3:","Stave 4:","Stave 5:","Stave 6:","Stave 7:"],"timing":[["W","W","W","W","W","W","W","W","W","W","W","W","W","W","W","W","W","W","W","W","W","W","W","W","W","W","W","W","W","W","W","W","W"],["W","W","W","W","W","W","W","W","W","W","W","W","W","W","W","W","W","W","W","W","W","W","W",null,"W","W","W","W","W","W","W","W","W","W","W"],["W","W","W","W","W","W","W","W","W","W","W","W","W","W","W","W","W","W","W","W","W","W","W","W",null,"W","W","W","W","W","W","W","W","W","W"],["W","W","W","W","W","W",null,"W","W","W","W",null,null,"W","W",null,"W","W","W","W","W","W","W","W","W",null,"W","W",null,"W","W","W","W","W",null,"W","W","W","W","W","W","W","W",null,"W"],["W","W",null,"W","W",null,"W","W",null,"W","W","W","W","W",null,"W","W","W","W",null,"W","W","W","W","W","W","W","W","W","W","W",null,"W","W","W","W","W","W","W","W",null,"W","W","W","W","W"],["W","W",null,"W","W","W",null,"W","W","W",null,"W","W","W","W","W","W","W","W","W","W","W","W","W","W","W","W",null,"W","W","W",null,"W","W","W","W","W","W","W","W","W","W","W",null,"W","W","W","W"],["W","W","W","W","W","W","W","W","W","W","W","W","W"]],"timingvisible":false,"tabcounter":13,"stave":6,"totalstaves":7,"instrument":"6guitar","selectedtuning":"6_standard","version":"13"}

Member for

1 month 1 week
Picture
About Me
I’m awesome
Submitted by aubreyking122 on Fri, 2020-10-23 18:40