Sound will begin in 5 seconds

Ejercicio

01234567891011121314151617181920212223
E
B
G
D
A
E
B
0 1 2 3 4 5 6 7 8 9 10 11 12 13 14 15 16 17 18 19 20 21 22 23
Song Science #1: How Pros Use 6 Chords to Write Hit Songs
(/) Slide Up  (\) Slide Down  (h) Hammer On  (p) Pull Off  (b) Bend (r) Release (v) Vibrato

Stave 1:

E|-----------------------------------------------------------------------------2-----1-----3--|--
B|-----------------------------------------------------------2-----1-----3--1-----3-----2-----|--
G|-----------------------------------------2-----1-----3--1-----3-----2-----------------------|--
D|-----------------------2-----1-----3--1-----3-----2-----------------------------------------|--
A|-----2-----1-----3--1-----3-----2-----------------------------------------------------------|--
E|--1-----3-----2-----------------------------------------------------------------------------|--

Stave 2:

E|-----2-----1-----3-----------------------------------------------------------------------------|--
B|--1-----3-----2--------2-----1-----3-----------------------------------------------------------|--
G|--------------------1-----3-----2--------2-----1-----3-----------------------------------------|--
D|--------------------------------------1-----3-----2--------2-----1-----3-----------------------|--
A|--------------------------------------------------------1-----3-----2--------2-----1-----3-----|--
E|--------------------------------------------------------------------------1-----3-----2-----1--|--

Stave 3:

E|-----------------------------------------------------------------------------3-----2-----4--|--
B|-----------------------------------------------------------3-----2-----4--2-----4-----3-----|--
G|-----------------------------------------3-----2-----4--2-----4-----3-----------------------|--
D|-----------------------3-----2-----4--2-----4-----3-----------------------------------------|--
A|-----3-----2-----4--2-----4-----3-----------------------------------------------------------|--
E|--2-----4-----3-----------------------------------------------------------------------------|--

Stave 4:

E|-----3-----2-----4-----------------------------------------------------------------------------|--
B|--2-----4-----3--------3-----2-----4-----------------------------------------------------------|--
G|--------------------2-----4-----3--------3-----2-----4-----------------------------------------|--
D|--------------------------------------2-----4-----3--------3-----2-----4-----------------------|--
A|--------------------------------------------------------2-----4-----3--------3-----2-----4-----|--
E|--------------------------------------------------------------------------2-----4-----3-----2--|--

http://www.guitartabcreator.com
Guitar Tab Creator is intended to store guitar tab created through the tool. It currently does not support in-line text editing. Any text you place in here will be lost. If you need to comment on your tab, please use the "Tab Notes" section located below.