Sound will begin in 5 seconds

Lab of Corpses

Chords
01234567891011121314151617181920212223
E
B
G
D
A
E
B
0 1 2 3 4 5 6 7 8 9 10 11 12 13 14 15 16 17 18 19 20 21 22 23
Song Science #1: How Pros Use 6 Chords to Write Hit Songs
(/) Slide Up  (\) Slide Down  (h) Hammer On  (p) Pull Off  (b) Bend (r) Release (v) Vibrato

Stave 1:

E|-----------------------------------------------------
B|-----------------------------------------------------
G|-----------------------------------------------------
D|--0-----------------------------------0--------------
A|--0-----------6--5--3--3--6--5--3--3--0--------------
D|--0--0--0--0--6--5--3--3--6--5--3--3--0--0--0--0--0--

Stave 2:

E|------------------------------------------------------------------------------
B|------------------------------------------------------------------------------
G|------------------------------------------------------------------------------
D|------------------------0--------------------------------------0--------------
A|--6--5--3--3--6--5--5v--0--------------6--5--3--3--6--5--3--3--0--------------
D|--6--5--3--3--6--5------0--0--0--0--0--6--5--3--3--6--5--3--3--0--0--0--0--0--

Stave 3:

E|------------------------------------------
B|------------------------------------------
G|------------------------------------------
D|------------------------------------------
A|--5--8--12--5--8--12--4--7--11--4--7--11--
D|------------------------------------------

Stave 4:

E|--5--3--
B|--5--3--
G|--5--3--
D|--5--3--
A|--5--3--
D|--5--3--

Stave 5:

E|----------------------------------------------------------------------------------------------------------
B|------------------------------------8--11--14-------------------------------------------------------------
G|----------------------------------------------------------------------------------------------------------
D|--0----------------------8--11--14------------------------------------------------------9--12--15--12--9--
A|--0--------------------------------------------0------------------9--12--15--12--9--10--------------------
D|--0--0--0--0--9--12--15------------------------0--0--0--0--0--10------------------------------------------

Stave 6:

E|-----------------------------------------------------------
B|-----------------------------------------------------------
G|-----------------------------------------------------------
D|--0--------------5--4--7--5--0--------------7--6--4--6--7--
A|--0--------------------------0-----------------------------
D|--0--0--0--0--0--------------0--0--0--0--0-----------------

Stave 7:

E|----------------------------------------------------------------------------------------------9--12--15--12--9--
B|------------------------------------------------------------------------9--12--15--12--9--10--------------------
G|--------------------------------------------------9--12--15--12--9--10------------------------------------------
D|----------------------------9--12--15--12--9--10----------------------------------------------------------------
A|------9--12--15--12--9--10--------------------------------------------------------------------------------------
D|--10------------------------------------------------------------------------------------------------------------

Stave 8:

E|----------------------------------------------------------------------------
B|------9--12--15--12--9------------------------------------------------------
G|--10------------------------9--12--15--12--9--------------------------------
D|------------------------10------------------------9--12--15-----------------
A|----------------------------------------------10-----------------9--12--15--
D|-------------------------------------------------------------10-------------

http://www.guitartabcreator.com
Guitar Tab Creator is intended to store guitar tab created through the tool. It currently does not support in-line text editing. Any text you place in here will be lost. If you need to comment on your tab, please use the "Tab Notes" section located below.