Sound will begin in 5 seconds

Lilium

01234567891011121314151617181920212223
E
B
G
D
A
E
B
0 1 2 3 4 5 6 7 8 9 10 11 12 13 14 15 16 17 18 19 20 21 22 23
Song Science #1: How Pros Use 6 Chords to Write Hit Songs
(/) Slide Up  (\) Slide Down  (h) Hammer On  (p) Pull Off  (b) Bend (r) Release (v) Vibrato

Stave 1:

E|-----9----------------9----------------------------------------------------------------------
B|--7-----9--10--10--7-----9--10--12--10------9-----------7------------------9--10--12--10--9--
G|----------------------------------------11-----9--7--9-----7--6--7--9--11--------------------
D|---------------------------------------------------------------------------------------------
A|---------------------------------------------------------------------------------------------
E|---------------------------------------------------------------------------------------------

Stave 2:

E|-----9----------------9---------------------------------------------7----------------------------
B|--7-----9--10--10--7-----9--10--12--10------9-----------7--------------10--9---------------------
G|----------------------------------------11-----9--7--9-----7--6--7------------11--10--8--10--11--
D|-------------------------------------------------------------------------------------------------
A|-------------------------------------------------------------------------------------------------
E|-------------------------------------------------------------------------------------------------

Stave 3:

E|------7--9--10---------10--9--12------9--------------------------------
B|--10------------10--9-------------10-----12--10--9------10--10--12--9--
G|----------------------------------------------------11-----------------
D|-----------------------------------------------------------------------
A|-----------------------------------------------------------------------
E|-----------------------------------------------------------------------

Stave 4:

E|-----9----------------9---------------------------------------------------7----------------------------
B|--7-----9--10--10--7-----9--10--12--10------9-----------------7--------------10--9---------------------
G|----------------------------------------11-----9--7--9-----------7--6--7------------11--10--8--10--11--
D|--------------------------------------------------------9--8-------------------------------------------
A|-------------------------------------------------------------------------------------------------------
E|-------------------------------------------------------------------------------------------------------

Stave 5:

E|------7--9--7--10--9--7-------------7--9--11--11--7--9------7--9------7--10--9--7-------------
B|--10---------------------10--9--10----------------------10--------10---------------10--9--10--
G|----------------------------------------------------------------------------------------------
D|----------------------------------------------------------------------------------------------
A|----------------------------------------------------------------------------------------------
E|----------------------------------------------------------------------------------------------

Stave 6:

E|--------------------------------------------14--14--12--10--9--11--7--9--------------------------------------------
B|--10--9-------------10--12--16--16--12--14-------------------------------10--9-------------10--14--16--16--12--14--
G|---------9--11--11--------------------------------------------------------------9--11--11--------------------------
D|-------------------------------------------------------------------------------------------------------------------
A|-------------------------------------------------------------------------------------------------------------------
E|-------------------------------------------------------------------------------------------------------------------

Stave 7:

E|------7--9--10---------10--9--12------9--------------------------------
B|--10------------10--9-------------10-----12--10--9------10--10--12--9--
G|----------------------------------------------------11-----------------
D|-----------------------------------------------------------------------
A|-----------------------------------------------------------------------
E|-----------------------------------------------------------------------

Stave 8:

E|-----9----------------9---------------------------------------------7----------------------------
B|--7-----9--10--10--7-----9--10--12--10------9-----------7--------------10--9---------------------
G|----------------------------------------11-----9--7--9-----7--6--7------------11--10--8--10--11--
D|-------------------------------------------------------------------------------------------------
A|-------------------------------------------------------------------------------------------------
E|-------------------------------------------------------------------------------------------------

http://www.guitartabcreator.com
Guitar Tab Creator is intended to store guitar tab created through the tool. It currently does not support in-line text editing. Any text you place in here will be lost. If you need to comment on your tab, please use the "Tab Notes" section located below.