Raindrops - attempt 1

Chords

01234567891011121314151617181920212223
E
B
G
D
A
E
B
0 1 2 3 4 5 6 7 8 9 10 11 12 13 14 15 16 17 18 19 20 21 22 23
(/) Slide Up  (\) Slide Down  (h) Hammer On  (p) Pull Off  (b) Bend (r) Release (v) Vibrato

Stave 1:

E|--------------------------------------------------------------------|--------------------------------------------------------------------|--
B|--------------------------------------------------------------------|--------------------------------------------------------------------|--
G|--------------------------------------------------------------------|--------------------------------------------------------------------|--
D|--4-----------4-----------4-----------4-----------4--------4--------|--------------------------------------------------------------------|--
A|--2--2--2--2--2--2--2--2--2--2--2--2--2--2--2--2--2--2--2--2--2--2--|--5-----------5-----------5-----------5-----------5--------5--------|--
E|--------------------------------------------------------------------|--3--3--3--3--3--3--3--3--3--3--3--3--3--3--3--3--3--3--3--3--3--3--|--

Stave 2:

E|--------------------------------------------------------------------|--------------------------------------------------------------------|--
B|--------------------------------------------------------------------|--------------------------------------------------------------------|--
G|--------------------------------------------------------------------|--------------------------------------------------------------------|--
D|--------------------------------------------------------------------|--------------------------------------------------------------------|--
A|--7-----------7-----------7-----------7-----------7--------7--------|--4-----------4-----------4-----------4-----------4--------4--------|--
E|--5--5--5--5--5--5--5--5--5--5--5--5--5--5--5--5--5--5--5--5--5--5--|--2--2--2--2--2--2--2--2--2--2--2--2--2--2--2--2--2--2--2--2--2--2--|--

Stave 3:

E|-----------------------------------------------|---------------------------------------------------------------|--
B|-----------------------------------------------|------14--15------14--15------14--15--15/17--15--14h15p14------|--
G|-----6--7-----6--7-----6--7--7/9--7--6h7p6-----|--16----------14----------16-------------------------------14--|--
D|--9--------7--------9-----------------------7--|---------------------------------------------------------------|--
A|-----------------------------------------------|---------------------------------------------------------------|--
E|-----------------------------------------------|---------------------------------------------------------------|--

Stave 4:

E|--------------------------------------------------|-----------------------|---------------------
B|--------------6-----------------------------------|--------------6--------|---------------------
G|--------7--------7--------------------------------|--------7--------7-----|---------------------
D|-----7-----7--------7--------8-------------10-----|-----7-----7--------7--|--7/10--8--7h8p7-----
A|--5-----------------------8-------------8------8--|--5--------------------|------------------8--
E|-----------------------6--------6--6/8------------|-----------------------|---------------------

							http://www.guitartabcreator.com
genre
Instruments
{"strings":[[[".",".",".",".",".",".",".",".",".",".",".",".",".",".",".",".",".",".",".",".",".",".","|",".",".",".",".",".",".",".",".",".",".",".",".",".",".",".",".",".",".",".",".",".",".","|"],[".",".",".",".",".",".",".",".",".",".",".",".",".",".",".",".",".",".",".",".",".",".","|",".",".",".",".",".",".",".",".",".",".",".",".",".",".",".",".",".",".",".",".",".",".","|"],[".",".",".",".",".",".",".",".",".",".",".",".",".",".",".",".",".",".",".",".",".",".","|",".",".",".",".",".",".",".",".",".",".",".",".",".",".",".",".",".",".",".",".",".",".","|"],[4,".",".",".",4,".",".",".",4,".",".",".",4,".",".",".",4,".",".",4,".",".","|",".",".",".",".",".",".",".",".",".",".",".",".",".",".",".",".",".",".",".",".",".",".","|"],[2,2,2,2,2,2,2,2,2,2,2,2,2,2,2,2,2,2,2,2,2,2,"|",5,".",".",".",5,".",".",".",5,".",".",".",5,".",".",".",5,".",".",5,".",".","|"],[".",".",".",".",".",".",".",".",".",".",".",".",".",".",".",".",".",".",".",".",".",".","|",3,3,3,3,3,3,3,3,3,3,3,3,3,3,3,3,3,3,3,3,3,3,"|"]],[[".",".",".",".",".",".",".",".",".",".",".",".",".",".",".",".",".",".",".",".",".",".","|",".",".",".",".",".",".",".",".",".",".",".",".",".",".",".",".",".",".",".",".",".",".","|"],[".",".",".",".",".",".",".",".",".",".",".",".",".",".",".",".",".",".",".",".",".",".","|",".",".",".",".",".",".",".",".",".",".",".",".",".",".",".",".",".",".",".",".",".",".","|"],[".",".",".",".",".",".",".",".",".",".",".",".",".",".",".",".",".",".",".",".",".",".","|",".",".",".",".",".",".",".",".",".",".",".",".",".",".",".",".",".",".",".",".",".",".","|"],[".",".",".",".",".",".",".",".",".",".",".",".",".",".",".",".",".",".",".",".",".",".","|",".",".",".",".",".",".",".",".",".",".",".",".",".",".",".",".",".",".",".",".",".",".","|"],[7,".",".",".",7,".",".",".",7,".",".",".",7,".",".",".",7,".",".",7,".",".","|",4,".",".",".",4,".",".",".",4,".",".",".",4,".",".",".",4,".",".",4,".",".","|"],[5,5,5,5,5,5,5,5,5,5,5,5,5,5,5,5,5,5,5,5,5,5,"|",2,2,2,2,2,2,2,2,2,2,2,2,2,2,2,2,2,2,2,2,2,2,"|"]],[[".",".",".",".",".",".",".",".",".",".",".",".",".",".",".",".",".",".",".","|",".",".",".",".",".",".",".",".",".",".",".",".",".",".",".",".",".",".",".","|"],[".",".",".",".",".",".",".",".",".",".",".",".",".",".",".",".",".",".",".","|",".",14,15,".",14,15,".",14,15,15,"/",17,15,14,"h",15,"p",14,".","|"],[".",6,7,".",6,7,".",6,7,7,"/",9,7,6,"h",7,"p",6,".","|",16,".",".",14,".",".",16,".",".",".",".",".",".",".",".",".",".",".",14,"|"],[9,".",".",7,".",".",9,".",".",".",".",".",".",".",".",".",".",".",7,"|",".",".",".",".",".",".",".",".",".",".",".",".",".",".",".",".",".",".",".","|"],[".",".",".",".",".",".",".",".",".",".",".",".",".",".",".",".",".",".",".","|",".",".",".",".",".",".",".",".",".",".",".",".",".",".",".",".",".",".",".","|"],[".",".",".",".",".",".",".",".",".",".",".",".",".",".",".",".",".",".",".","|",".",".",".",".",".",".",".",".",".",".",".",".",".",".",".",".",".",".",".","|"]],[[".",".",".",".",".",".",".",".",".",".",".",".",".",".",".",".",".","|",".",".",".",".",".",".",".","|",".",".",".",".",".",".",".",".",".","."],[".",".",".",".",6,".",".",".",".",".",".",".",".",".",".",".",".","|",".",".",".",".",6,".",".","|",".",".",".",".",".",".",".",".",".","."],[".",".",7,".",".",7,".",".",".",".",".",".",".",".",".",".",".","|",".",".",7,".",".",7,".","|",".",".",".",".",".",".",".",".",".","."],[".",7,".",7,".",".",7,".",".",8,".",".",".",".",".",10,".","|",".",7,".",7,".",".",7,"|",7,"/",10,8,7,"h",8,"p",7,"."],[5,".",".",".",".",".",".",".",8,".",".",".",".",".",8,".",8,"|",5,".",".",".",".",".",".","|",".",".",".",".",".",".",".",".",".",8],[".",".",".",".",".",".",".",6,".",".",6,6,"/",8,".",".",".","|",".",".",".",".",".",".",".","|",".",".",".",".",".",".",".",".",".","."]]],"numberofstrings":6,"notes":["E","B","G","D","A","E","B"],"capo":0,"stringnotes":["E4","B3","G3","D3","A2","E2"],"comments":["Stave 1:","Stave 2:","Stave 3:","Stave 4:"],"timing":[["W","W","W","W","W","W","W","W","W","W","W","W","W","W","W","W","W","W","W","W","W","W",null,"W","W","W","W","W","W","W","W","W","W","W","W","W","W","W","W","W","W","W","W","W","W"],["W","W","W","W","W","W","W","W","W","W","W","W","W","W","W","W","W","W","W","W","W","W",null,"W","W","W","W","W","W","W","W","W","W","W","W","W","W","W","W","W","W","W","W","W","W"],["W","W","W","W","W","W","W","W","W","W",null,"W","W","W",null,"W",null,"W","W",null,"W","W","W","W","W","W","W","W","W","W",null,"W","W","W",null,"W",null,"W","W"],["W","W","W","W","W","W","W","W","W","W","W","W",null,"W","W","W","W",null,"W","W","W","W","W","W","W",null,"W",null,"W","W","W",null,"W",null,"W","W"]],"timingvisible":false,"tabcounter":36,"stave":3,"totalstaves":4,"instrument":"6guitar","selectedtuning":"6_standard","version":"13"}

Member for

1 month 3 weeks
Submitted by AshKnight9 on Tue, 2020-10-13 17:13