Sound will begin in 5 seconds

recovery

01234567891011121314151617181920212223
E
B
G
D
A
E
B
0 1 2 3 4 5 6 7 8 9 10 11 12 13 14 15 16 17 18 19 20 21 22 23
Song Science #1: How Pros Use 6 Chords to Write Hit Songs
(/) Slide Up  (\) Slide Down  (h) Hammer On  (p) Pull Off  (b) Bend (r) Release (v) Vibrato

Stave 1:

E|--0----------------------------------------------------------------------------------
B|-----1-----------3-----------------------12----------------------14------------------
G|--------2-----3-----------5--7--6------------------------------------15------17------
D|-----------1--------------------------8------10--11----------13------------------18--
A|-----------------------5-----------9---------------------14--------------16----------
E|--------------------4--------------------------------12------------------------------

Stave 2:

E|-------------------------------------------------10------------
B|--------4---------------------5---------------8----------------
G|-----0--------------2---------------14--8----------------------
D|--1--------4-----2--------11-----6-------------------------15--
A|-------------------------------------------7---------6--6------
E|--------------2--------9---------------------------------------

http://www.guitartabcreator.com
Guitar Tab Creator is intended to store guitar tab created through the tool. It currently does not support in-line text editing. Any text you place in here will be lost. If you need to comment on your tab, please use the "Tab Notes" section located below.