mac demarco

Chords

01234567891011121314151617181920212223
E
B
G
D
A
E
B
0 1 2 3 4 5 6 7 8 9 10 11 12 13 14 15 16 17 18 19 20 21 22 23
(/) Slide Up  (\) Slide Down  (h) Hammer On  (p) Pull Off  (b) Bend (r) Release (v) Vibrato

Capo Fret 3

Stave 1:

E|--0-----------0h2--3--2--3--5--------3h5--7-----------------------------0h2--3-----2-----0--------
B|------------------------------------------0--------0-----------------0-------------------------3--
G|--------0-------------------------0-------0-----0-----0-----------0-------------0-----0-----0-----
D|-----------2-------------------0-------------0-----------0-----0----------------------------------
A|-----2-------------2--------3-------------3----------------------------------2--------------------
E|--0---------------------------------------------------------0----------------------------------2--

Stave 2:

E|----------------------------
B|--------3/5--3--0-----------
G|-----0----------0-----0-----
D|--0----------------0-----0--
A|----------------3-----------
E|----------------------------

							http://www.guitartabcreator.com
Instruments
{"strings":[[[0,".",".",".",0,"h",2,3,2,3,5,".",".",3,"h",5,7,".",".",".",".",".",".",".",".",".",0,"h",2,3,".",2,".",0,".","."],[".",".",".",".",".",".",".",".",".",".",".",".",".",".",".",".",0,".",".",0,".",".",".",".",".",0,".",".",".",".",".",".",".",".",".",3],[".",".",0,".",".",".",".",".",".",".",".",".",0,".",".",".",0,".",0,".",0,".",".",".",0,".",".",".",".",".",0,".",0,".",0,"."],[".",".",".",2,".",".",".",".",".",".",".",0,".",".",".",".",".",0,".",".",".",0,".",0,".",".",".",".",".",".",".",".",".",".",".","."],[".",2,".",".",".",".",".",2,".",".",3,".",".",".",".",".",3,".",".",".",".",".",".",".",".",".",".",".",".",2,".",".",".",".",".","."],[0,".",".",".",".",".",".",".",".",".",".",".",".",".",".",".",".",".",".",".",".",".",0,".",".",".",".",".",".",".",".",".",".",".",".",2]],[[".",".",".",".",".",".",".",".",".","."],[".",".",3,"/",5,3,0,".",".","."],[".",0,".",".",".",".",0,".",0,"."],[0,".",".",".",".",".",".",0,".",0],[".",".",".",".",".",".",3,".",".","."],[".",".",".",".",".",".",".",".",".","."]]],"numberofstrings":6,"notes":["E","B","G","D","A","E"],"capo":"3","stringnotes":["E3","B2","G2","D2","A1","E1"],"comments":["Stave 1:","Stave 2:"],"timing":[[null,null,null,null,null,null,null,null,null,null,null,null,null,null,null,null,null,null,null,null,null,null,null,null,null,null,null,null,null,null,null,null,null,null,null,null,null,null],[null,null,null,null,null,null,null,null,null,null]],"timingvisible":false,"tabcounter":10,"stave":1,"totalstaves":2,"instrument":"6guitar","selectedtuning":"6guitar","version":"13"}

Member for

1 hour 7 minutes
Submitted by asamisbottom on Sat, 2020-10-17 21:23