Sound will begin in 5 seconds

Comfortably numb

Chords
01234567891011121314151617181920212223
E
B
G
D
A
E
B
0 1 2 3 4 5 6 7 8 9 10 11 12 13 14 15 16 17 18 19 20 21 22 23
Song Science #1: How Pros Use 6 Chords to Write Hit Songs
(/) Slide Up  (\) Slide Down  (h) Hammer On  (p) Pull Off  (b) Bend (r) Release (v) Vibrato

Stave 1:

E|----------14v-----14b15r14----------------------------------------14b15r14-----------------------------------
B|------14--------------------15b17--15--14--14-------------------------------15b17--15--14--------------------
G|--14-------------------------------------------14------------------------------------------14----------------
D|---------------------------------------------------14\12--12v----------------------------------14--12--11\9--
A|-------------------------------------------------------------------------------------------------------------
E|-------------------------------------------------------------------------------------------------------------

Stave 2:

E|-----------------------------------------------------------------------12h14h15--14--12----------------------
B|-----------------------------------------------------------------------------------------15--12--------------
G|-----11b12-----11--9--7--11p9--9\7--7v-----9p7-----7--9--11--11b12-------------------------------12----------
D|--7---------------------------------------------9----------------------------------------------------12v-----
A|-------------------------------------------------------------------------------------------------------------
E|-------------------------------------------------------------------------------------------------------------

Stave 3:

E|---------------------------------------------------------------
B|---------------------------------------------------------------
G|-----------------------11b12-----11b12r11b12r11--9-------------
D|--10\9--9--10p9--7----------------------------------7/9\7--7v--
A|---------------------------------------------------------------
E|---------------------------------------------------------------

Stave 4:

E|---------------------------------------------------------------------------------------10--
B|------------------------------------------------------10------10--12--12b15r12p10--12------
G|--7--9--9b11--9b11r9p7-----7--9--9v--7-----7-----/11------11-------------------------------
D|------------------------9---------------9--------------------------------------------------
A|-------------------------------------------------------------------------------------------
E|-------------------------------------------------------------------------------------------

Stave 5:

E|---------------------------------------------------------------------------
B|-------------------------10--7-----7---------------------------------------
G|-----7--9b11r9p7----------------9-----9--7---------------------7b9---------
D|------------------9v------------------------9---------7--7--9-------9--9v--
A|--------------------------------------------------/9-----------------------
E|---------------------------------------------------------------------------

Stave 6:

E|-----------7--9--9b11--9b11--9p7------7---------------------------7------------------------------------
B|--------7-------------------------10-----10b12-----10p7-----7--7-----10p7------------------------------
G|-----7---------------------------------------------------9-----------------9b11r9p7--9--7--------------
D|--9----------------------------------------------------------------------------------------9--7--------
A|-------------------------------------------------------------------------------------------------9--8--
E|-------------------------------------------------------------------------------------------------------

Stave 7:

E|------------------------------------7--------------------------------------------------------
B|---------------------------------7-----10p7--------------------------------------------------
G|-----------------7--7--7v--9b11--------------9--9b11r9p7--9--7-------------------------------
D|----------------------------------------------------------------9p7--------------------------
A|--7--5-----5---------------------------------------------------------9--7--5--7p5-----5--7v--
E|--------7--------------------------------------------------------------------------7---------

Stave 8:

E|------------------------------------7-------------------------------7------------------------------------
B|---------------------------------------10p7----------------------------10p7------------------------------
G|-------------------7-----7--9b11r9-----------9b11r9--7--9--7--9b11-----------9--9b11r9p7--9--7-----------
D|-------7--7--7--9-----9-------------------------------------------------------------------------9--7-----
A|--7\9-------------------------------------------------------------------------------------------------9--
E|---------------------------------------------------------------------------------------------------------

Stave 9:

E|------------------
B|------------------
G|------------------
D|------------------
A|--8--7--5-----5v--
E|-----------7------

Stave 10:

E|---------------------------------------------------------------------7-----------------
B|------------------------------------------------------------------------10--7--10b12v--
G|--7---------7--7--7------7--7--7-----7--9b11r9--7-----7--9--9b11-----------------------
D|-----9v--------------9v-----------9----------------9-----------------------------------
A|---------------------------------------------------------------------------------------
E|---------------------------------------------------------------------------------------

Stave 11:

E|-----------7---------------------------------------------------------------------
B|--------7-----10p7---------------------------------------------------------------
G|--9b11--------------9b11r9p7--9--7-----7--------------------------------------7--
D|------------------------------------9-----9p7--9p7-----7------------------9v-----
A|----------------------------------------------------9-----9--8--7----------------
E|-------------------------------------------------------------------10--7---------

Stave 12:

E|---------------------------------------------------------------------
B|--7-----7--7------------------------------------------7--------------
G|--7-----7--7---------7-----9v--7----------------------7--------------
D|--------------7v--9-----9---------9p7-----7v--9p7--------9p7-----7v--
A|---------------------------------------9-----------9----------9------
E|---------------------------------------------------------------------

Stave 13:

E|------------------------------------------------
B|----------7----------7--7--7-----7-----7--7--7--
G|----------7--9p7-----7--7--7-----7-----7--7--7--
D|--9p7-------------9-----------7-----7-----------
A|-------9----------------------------------------
E|------------------------------------------------

Stave 14:

E|--17--17\19--19--21--21b23--21b23--21b23--21b23--19--19h21p19--
B|---------------------------------------------------------------
G|---------------------------------------------------------------
D|---------------------------------------------------------------
A|---------------------------------------------------------------
E|---------------------------------------------------------------

Stave 15:

E|-----------------------------------------------
B|--17--17--17--17b19--17b19r17p15------15--17v--
G|----------------------------------16-----------
D|-----------------------------------------------
A|-----------------------------------------------
E|-----------------------------------------------

Stave 16:

E|---------------------------
B|--15--17--17b19r17p15------
G|-----------------------16--
D|---------------------------
A|---------------------------
E|---------------------------

Stave 17:

E|-----------------------------10---------10--12b14r12p10--12-------
B|--------10--12-----------12------12p10-----------------------12v--
G|--7\11----------9--7----------------------------------------------
D|----------------------9-------------------------------------------
A|------------------------------------------------------------------
E|------------------------------------------------------------------

Stave 18:

E|--
B|--
G|--
D|--
A|--
E|--

Stave 19:

E|--------------------------------------------------------
B|--12b15--12--10-----------------------------------------
G|-----------------9--7--9p7-----7------------------------
D|----------------------------9-----9--7------------------
A|----------------------------------------9--8--7------7--
E|-------------------------------------------------10-----

http://www.guitartabcreator.com
Guitar Tab Creator is intended to store guitar tab created through the tool. It currently does not support in-line text editing. Any text you place in here will be lost. If you need to comment on your tab, please use the "Tab Notes" section located below.