Sound will begin in 5 seconds

Another brick in the wall

Chords
01234567891011121314151617181920212223
E
B
G
D
A
E
B
0 1 2 3 4 5 6 7 8 9 10 11 12 13 14 15 16 17 18 19 20 21 22 23
Song Science #1: How Pros Use 6 Chords to Write Hit Songs
(/) Slide Up  (\) Slide Down  (h) Hammer On  (p) Pull Off  (b) Bend (r) Release (v) Vibrato

Stave 1:

E|--------------------------------10-------------------------
B|--13--10---------10---------10------13b15v-----10--10--10--
G|----------12b13------12b14---------------------10--10--10--
D|-----------------------------------------------------------
A|-----------------------------------------------------------
E|-----------------------------------------------------------

Stave 2:

E|----------------------------------------------
B|--13b15--15b17r13--13v-----13p10--------------
G|----------------------------------12--12b14v--
D|----------------------------------------------
A|----------------------------------------------
E|----------------------------------------------

Stave 3:

E|-------------------------------
B|-----6p5-----5-------8-----10--
G|--6-------7-----5\7-----7--10--
D|-------------------------------
A|-------------------------------
E|-------------------------------

Stave 4:

E|-------------------------------------------------
B|--10------10--10------10--10------10--12--10-11--
G|--10------10--10------10--10------10--12--10b11--
D|------12----------12----------12-----------------
A|-------------------------------------------------
E|-------------------------------------------------

Stave 5:

E|--|--13b15--13--13--12------------------------
B|--|------------------------13b15b17b18r13b15--
G|--|-------------------------------------------
D|--|-------------------------------------------
A|--|-------------------------------------------
E|--|-------------------------------------------

Stave 6:

E|-------------10-------------------------------------------
B|---------10------13p10------------------------------------
G|--12b13-----------------12--13r12p10--12--10------10------
D|----------------------------------------------12------12--
A|----------------------------------------------------------
E|----------------------------------------------------------

Stave 7:

E|--------------------------------------------------------------------
B|--------------------------------------------------------------------
G|--10----------------------------------------------------------------
D|--12p10-------------------------------------------------------------
A|---------12--10--12--10--8--10p8---------------------8--------------
E|----------------------------------10--8--10v-----10-----10--8--10v--

http://www.guitartabcreator.com
Guitar Tab Creator is intended to store guitar tab created through the tool. It currently does not support in-line text editing. Any text you place in here will be lost. If you need to comment on your tab, please use the "Tab Notes" section located below.