Sound will begin in 5 seconds

Artem

Chords
01234567891011121314151617181920212223
E
B
G
D
A
E
B
0 1 2 3 4 5 6 7 8 9 10 11 12 13 14 15 16 17 18 19 20 21 22 23
Song Science #1: How Pros Use 6 Chords to Write Hit Songs
(/) Slide Up  (\) Slide Down  (h) Hammer On  (p) Pull Off  (b) Bend (r) Release (v) Vibrato

Stave 1:

E|----------------------------------------------------------------------------------------------------
B|----------------------------------------------------------------------------------------------------
G|---------------------------------9------------------------------------------------------------------
D|--------------9--------10--------------10-----9-----------------4--------5--------7-----5-----4-----
A|--7--7--7--7-----7--7------7--7-----7------7-----7--5--5--5--5-----5--5-----5--5-----5-----5-----5--
E|----------------------------------------------------------------------------------------------------

Stave 2:

E|---------------------------------------------------------------------------------------------------
B|---------------------------------------------------------------------------------------------------
G|-----------------------------------------------------------------------------------9---------------
D|---------------------------------9-----------------------------------------------------------------
A|--------------9--------10--------------10-----9-----------------9--------10--------------9--10--9--
E|--7--7--7--7-----7--7------7--7-----7------7-----7--8--8--8--8-----8--8------8--8-----8------------

Stave 3:

E|--------------------------------------------------------------------------------------------------
B|--------------------------------------------------------------------------------------------------
G|--9-----9--9--9-----9--9--9-----7--5-----5--5--5-----5--5--5-----7--2-----2--2--2-----2--2--2--2--
D|--9-----9--9--9-----9--9--9-----7--5-----5--5--5-----5--5--5-----7--2-----2--2--2-----2--2--2--2--
A|--7-----7--7--7-----7--7--7-----5--3-----3--3--3-----3--3--3-----5--0-----0--0--0-----0--0--0--0--
E|--------------------------------------------------------------------------------------------------

Stave 4:

E|-----------------------------------------
B|-----------------------------------------
G|--5-----5--5--5-----5--5--4-----4--4--4--
D|--5-----5--5--5-----5--5--4-----4--4--4--
A|--3-----3--3--3-----3--3--2-----2--2--2--
E|-----------------------------------------

Stave 5:

E|----------------------------------------------------------------------------------------------
B|----------------------------------------------------------------------------------------------
G|--9-----9--9--9-----9--9--9--7-----12-----12--12--12-----14--12--11---------------------------
D|--9-----9--9--9-----9--9--9--7-----12-----12--12--12-----14--12--11-----10-----10--10--10-----
A|--7-----7--7--7-----7--7--7--5-----10-----10--10--10-----12--10--9------10-----10--10--10-----
E|------------------------------------------------------------------------8------8---8---8------

Stave 6:

E|--------------------------------
B|--------------------------------
G|--14--12--11--------------------
D|--14--12--11-----9-----9--9--9--
A|--12--10--9------9-----9--9--9--
E|-----------------7-----7--7--7--

http://www.guitartabcreator.com
Guitar Tab Creator is intended to store guitar tab created through the tool. It currently does not support in-line text editing. Any text you place in here will be lost. If you need to comment on your tab, please use the "Tab Notes" section located below.