Sound will begin in 5 seconds

Flash Forward

Chords
01234567891011121314151617181920212223
E
B
G
D
A
E
B
0 1 2 3 4 5 6 7 8 9 10 11 12 13 14 15 16 17 18 19 20 21 22 23
Song Science #1: How Pros Use 6 Chords to Write Hit Songs
(/) Slide Up  (\) Slide Down  (h) Hammer On  (p) Pull Off  (b) Bend (r) Release (v) Vibrato

Stave 1:

E|-----------------|-----------------|-----------------|--------------------
B|-----------------|-----------------|-----------------|--------------------
G|-----------------|-----------------|-----------------|--------------------
D|-----------------|-----------------|-----------------|--------------------
A|--------2--3--4--|--4--3--2--------|--------2--3--4--|--4--3--2-----------
E|--2--5-----------|-----------5--2--|--2--5-----------|-----------5--2--2--

Stave 2:

E|----------------|-----------------
B|----------------|-----------------
G|--11--11--7--7--|-----------9--9--
D|--11--11--7--7--|--9--9--9--9--9--
A|--9---9---5--5--|--9--9--9--7--7--
E|----------------|--7--7--7--------

Stave 3:

E|----------------|--------------
B|----------------|--------------
G|--11--11--9--9--|--7--7--------
D|--11--11--9--9--|--7--7--0--9--
A|--9---9---7--7--|--5--5--0--9--
E|----------------|-----------7--

http://www.guitartabcreator.com
Guitar Tab Creator is intended to store guitar tab created through the tool. It currently does not support in-line text editing. Any text you place in here will be lost. If you need to comment on your tab, please use the "Tab Notes" section located below.