CHURA LIYA

Chords

01234567891011121314151617181920212223
E
B
G
D
A
E
B
0 1 2 3 4 5 6 7 8 9 10 11 12 13 14 15 16 17 18 19 20 21 22 23
(/) Slide Up  (\) Slide Down  (h) Hammer On  (p) Pull Off  (b) Bend (r) Release (v) Vibrato

Stave 1:

E|--------------------------------
B|--5--5--8--7--5--5--7--5--------
G|--------------------------7-----
D|-----------------------------7--
A|--------------------------------
E|--------------------------------

Stave 2:

E|--------------------------------
B|--5--5--8--7--5--5--7--5--4-----
G|--------------------------------
D|--------------------------------
A|--------------------------------
E|--------------------------------

Stave 3:

E|--------------------------------------
B|--5--5--8--7-----5--5--7-----5--------
G|--------------------------------7-----
D|-----------------------------------7--
A|--------------------------------------
E|--------------------------------------

Stave 4:

E|-----------------------------
B|--5--5--8--7--5--5--7--5--5--
G|-----------------------------
D|-----------------------------
A|-----------------------------
E|-----------------------------

							http://www.guitartabcreator.com
Instruments
{"strings":[[[".",".",".",".",".",".",".",".",".","."],[5,5,8,7,5,5,7,5,".","."],[".",".",".",".",".",".",".",".",7,"."],[".",".",".",".",".",".",".",".",".",7],[".",".",".",".",".",".",".",".",".","."],[".",".",".",".",".",".",".",".",".","."]],[[".",".",".",".",".",".",".",".",".","."],[5,5,8,7,5,5,7,5,4,"."],[".",".",".",".",".",".",".",".",".","."],[".",".",".",".",".",".",".",".",".","."],[".",".",".",".",".",".",".",".",".","."],[".",".",".",".",".",".",".",".",".","."]],[[".",".",".",".",".",".",".",".",".",".",".","."],[5,5,8,7,".",5,5,7,".",5,".","."],[".",".",".",".",".",".",".",".",".",".",7,"."],[".",".",".",".",".",".",".",".",".",".",".",7],[".",".",".",".",".",".",".",".",".",".",".","."],[".",".",".",".",".",".",".",".",".",".",".","."]],[[".",".",".",".",".",".",".",".","."],[5,5,8,7,5,5,7,5,5],[".",".",".",".",".",".",".",".","."],[".",".",".",".",".",".",".",".","."],[".",".",".",".",".",".",".",".","."],[".",".",".",".",".",".",".",".","."]]],"numberofstrings":6,"notes":["E","B","G","D","A","E","B"],"capo":0,"stringnotes":["E4","B3","G3","D3","A2","E2"],"comments":["Stave 1:","Stave 2:","Stave 3:","Stave 4:"],"timing":[[null,null,null,null,null,null,null,null,null,null],[null,null,null,null,null,null,null,null,null,null],[null,null,null,null,null,null,null,null,null,null,null,null,null],[null,null,null,null,null,null,null,null,null,null]],"timingvisible":false,"tabcounter":9,"stave":3,"totalstaves":4,"instrument":"6guitar","selectedtuning":"6_standard","version":"13"}

Member for

3 months 2 weeks
Submitted by arpankumar90 on Tue, 2020-06-23 09:57