Sound will begin in 5 seconds

Dustflow

01234567891011121314151617181920212223
E
B
G
D
A
E
B
0 1 2 3 4 5 6 7 8 9 10 11 12 13 14 15 16 17 18 19 20 21 22 23
Song Science #1: How Pros Use 6 Chords to Write Hit Songs
(/) Slide Up  (\) Slide Down  (h) Hammer On  (p) Pull Off  (b) Bend (r) Release (v) Vibrato

Stave 1:

C |-------4-----------5-
G |-----3---3-------4---
Eb|---1-------1---2-----
Bb|-0-----------0-------
F |---------------------
C |---------------------

Stave 2:

C |---------------------------------
G |---------------------------------
Eb|---------------------------------
Bb|---------------------------------
F |-5-2---5-6-3---6-5-2---5-3---2---
C |-----3-------4-------3-----4---3-

Stave 3:

C |--------------------------------------------------------
G |--------------------------------------------------------
Eb|--------------------------------------------------------
Bb|-------8---8--8-------7---7--------8---8--9-------7---7-
F |-6-7-9---9------6-7-8---8----6-7-9---9------6-7-8---8---
C |--------------------------------------------------------

http://www.guitartabcreator.com
Guitar Tab Creator is intended to store guitar tab created through the tool. It currently does not support in-line text editing. Any text you place in here will be lost. If you need to comment on your tab, please use the "Tab Notes" section located below.