compo

Chords

01234567891011121314151617181920212223
E
B
G
D
A
E
B
0 1 2 3 4 5 6 7 8 9 10 11 12 13 14 15 16 17 18 19 20 21 22 23
(/) Slide Up  (\) Slide Down  (h) Hammer On  (p) Pull Off  (b) Bend (r) Release (v) Vibrato


Breakdown
p.m....................................4x
|--------------------------------------|
|--------------------------------------|
|--------------------------------------|
|--0--3--5--6--5--0--3--5--0--1--3--0--|
|--0--3--5--6--5--0--3--5--0--1--3--0--|
|--0--3--5--6--5--0--3--5--0--1--3--0--|

Breakdown cont'd                       4x
|--------------------------------------|
|--------------------------------------|
|--------------------------------------|
|--0--3--5--6--5--0--3--5--0--1--3--0--|
|--0--3--5--6--5--0--3--5--0--1--3--0--|
|--0--3--5--6--5--0--3--5--0--1--3--0--|
 
BREADKDOWN ng pangatlo!
[[],[],[],[],[],[]]

Member for

8 years 8 months
Submitted by arche on Wed, 2011-10-26 04:27