Sound will begin in 5 seconds

While Your Lips Are Still Red Solo Guitar adap

01234567891011121314151617181920212223
E
B
G
D
A
E
B
0 1 2 3 4 5 6 7 8 9 10 11 12 13 14 15 16 17 18 19 20 21 22 23
Song Science #1: How Pros Use 6 Chords to Write Hit Songs
(/) Slide Up  (\) Slide Down  (h) Hammer On  (p) Pull Off  (b) Bend (r) Release (v) Vibrato

Stave 1:

E|-----------------------------------------------------------------------------------------------------
B|-------------------------------------10--10--11--10--------------------------------------------------
G|--------------10--12v--------10--12---------------------------------------------------------10-------
D|--12--10--12-----------------------------------------12--10v------------10--13--13--12--13------12v--
A|--------------------------------------------------------------------13-------------------------------
E|-----------------------------------------------------------------------------------------------------

Stave 2:

E|---------------------------------------------
B|--10--10--11--10-----------------------------
G|------------------10--10/12--12\10-----------
D|------------------------------------12--10v--
A|---------------------------------------------
E|---------------------------------------------

Stave 3:

E|------------------------------------------------------------------------
B|--1--------------1-----------------------1--1--------------1------------
G|-----3--2--0--------3--2--0-----0--2--3--------3--2--0--------3--2------
D|--------------------------------------------------------------------3v--
A|------------------------------------------------------------------------
E|------------------------------------------------------------------------

Stave 4:

E|--------------------------------------------------------------------
B|--1--------------1--------------------------1--3--1-----------------
G|-----3--2--0--------3--2--------------2--3-----------3--2-----------
D|--------------------------3--------3-----------------------3--3/5v--
A|--------------------------------------------------------------------
E|--------------------------------------------------------------------

Stave 5:

E|-------------------------------------------------------------------------------------
B|-------------------------------------------------------------------------------------
G|-------------------------------------------------------------------------------------
D|-----------3--5v-----------3--5--5/7--7--8--7---------------------------------3------
A|--5--3--5--------------------------------------5--3v-----3-----3--6--6--5--6-----5v--
E|------------------------------------------------------------6------------------------

Stave 6:

E|-----------------------------------------
B|-----------------------------------------
G|--2-----2--3--2--------------------------
D|--------------------3--3/5v--------5--3--
A|-----------------------------------------
E|-----------------------------------------

Stave 7:

E|------------------------------------------------------
B|------------------------------------------------------
G|--2-----2--3--2--------------------0--3--2--0---------
D|--------------------3--3/5v--------------------3--3v--
A|------------------------------------------------------
E|------------------------------------------------------

Stave 8:

E|---------------------------------------
B|---------------------------------------
G|-----3p2h3---------------3p2h3---------
D|--5---------5--5v-----3---------3--3v--
A|---------------------------------------
E|---------------------------------------

Stave 9:

E|-------------------------------------------------------------------
B|-------------------------------------------------------------------
G|-----3p2h3--------3p2h3--------5p3h5--------5p3h5----------7p5h7v--
D|--5---------5--5---------5--3---------3--3---------3--3/5----------
A|-------------------------------------------------------------------
E|-------------------------------------------------------------------

Stave 10:

E|--------------------------------------------------------------------------
B|--------------------------------------------------------------------------
G|-----3p2h3------------------0--2--3--7p5h7--3--3v--------2--5p3h5--2--2v--
D|--5---------5--5v---------------------------------------------------------
A|--------------------------------------------------------------------------
E|--------------------------------------------------------------------------

Stave 11:

E|--------------------------------------------------------------------
B|--------------------------------------------------------------------
G|-----5p3h5---------------3p2h3-----------------------------------5--
D|--5---------5--5v-----5---------5--5v--------5--5p3h5v--------------
A|--------------------------------------------------------------------
E|--------------------------------------------------------------------

Stave 12:

E|-----------------------------------------------------------------
B|-----------------------------------------------------------------
G|-----3p2h3--------3p2h3---------------3p2h3--------3p2h3---------
D|--5---------5--5---------5--5v-----3---------3--3---------3--3v--
A|-----------------------------------------------------------------
E|-----------------------------------------------------------------

http://www.guitartabcreator.com
Guitar Tab Creator is intended to store guitar tab created through the tool. It currently does not support in-line text editing. Any text you place in here will be lost. If you need to comment on your tab, please use the "Tab Notes" section located below.