Sound will begin in 5 seconds

Diablo Wortham Theme

Chords
01234567891011121314151617181920212223
E
B
G
D
A
E
B
0 1 2 3 4 5 6 7 8 9 10 11 12 13 14 15 16 17 18 19 20 21 22 23
Song Science #1: How Pros Use 6 Chords to Write Hit Songs
(/) Slide Up  (\) Slide Down  (h) Hammer On  (p) Pull Off  (b) Bend (r) Release (v) Vibrato

Stave 1:

E|--------------|--------------|--------------|--------------|--------------|--------------|--------------|--------------|--
B|--------------|--------------|--------------|--------------|--------------|--------------|--------------|--------------|--
G|--------------|--------------|--------------|--------------|--------------|--2-----------|--------------|--------------|--
D|--------------|--2-----------|--------------|--------------|--------------|--2-----3-----|--2-----------|--------------|--
A|--0--------0--|-----0--------|--3-----------|--------------|--0--------0--|-----0--------|--3-----------|--------------|--
D|--------------|--------------|--------------|--------------|--------------|--------------|--------------|--------------|--

Stave 2:

E|--------------|--------------|--------------|--------------|--------------|--------------|--------------|--------------|--
B|--------------|--------------|--------------|--------------|--------------|--------------|--------------|--------------|--
G|--------------|--------------|--------------|--------------|--------------|--------------|--------------|--------------|--
D|--------------|--0-----------|--------------|--------------|--------------|--0-----------|--------------|--------------|--
A|--------------|-----3--2-----|--0-----------|--------------|--------------|--------3-----|--2-----------|--------------|--
D|--0--------0--|--------------|--------------|--6-----------|--0--------0--|-----0--------|--------------|--3-----------|--

Stave 3:

E|--------------|--------------|--------------|--------------|--------------|--0-----------|--------------|-----------|--
B|--------------|--------------|--------------|--------------|--------------|--------------|--------------|-----------|--
G|--------------|--2-----------|--------------|--------------|--------------|--2-----------|--------------|-----------|--
D|-----------2--|-----2--3-----|--2-----------|--------------|-----------2--|--------3-----|--2-----------|-----------|--
A|--0--------0--|--------------|--3-----------|--------------|--0--------0--|-----0--------|--3-----------|-----------|--
D|--------------|--------------|--------------|--------------|--------------|--------------|--------------|-----------|--

Stave 4:

E|--------------|--------------|--------------|--------------|--------------|--------------|--------------|--------------|--
B|--------------|--------------|--------------|--------------|--------------|--3-----------|--------------|--------------|--
G|--------------|--------------|--------------|--------------|--------------|--------2-----|--------------|--------------|--
D|--------------|--0-----------|--------------|--------------|--------------|-----------3--|--6-----------|--3-----------|--
A|--------------|--------0-----|--------------|--------------|-----------0--|-----0--------|--------------|--------------|--
D|--0--------0--|-----0-----3--|--6-----------|--6-----------|--0--------0--|-----------3--|--6-----------|--3-----------|--

Stave 5:

E|--------------|--------------|--------------|--------------|--------------|--------------|--------------|--------------|--
B|--------------|--------------|--------------|--------------|--------------|--------------|--------------|--------------|--
G|--------------|--2-----------|--------------|--------0-----|--------------|--2-----------|--------------|--------0-----|--
D|-----------2--|--------3-----|--2-----------|--3-----------|-----------2--|--------3-----|--2-----------|--3-----------|--
A|--0--------0--|-----0--------|--3-----------|--------------|--0--------0--|-----0--------|--3-----------|--------------|--
D|--------------|--------------|--------------|--------------|--------------|--------------|--------------|--------------|--

Stave 6:

E|--------------|--------------|--------------|--------------|--------------|--1-----------|--------------|--4-----0-----|--
B|--------------|--3-----------|--------------|--1-----0-----|--------------|--------------|--------------|--------------|--
G|--------------|--------2-----|--------------|--------------|--2-----------|--------------|--------------|--------------|--
D|--0--------0--|-----0--------|--2--------2--|--------------|--3--------3--|-----3--------|--2--------2--|--------------|--
A|--------------|--------------|--------------|--------------|--------------|--------------|--------------|--------------|--
D|--------------|--------------|--------------|--------------|--------------|--------------|--------------|--------------|--

Stave 7:

E|--5-----------|--5-----------|--------------|-----------3--|--5-----------|--5-----------|--------------|--------3-----|--
B|--------------|--------6-----|--5--------5--|--------5-----|--------------|--------6-----|--5-----------|--5-----------|--
G|--------------|--------------|--5-----------|--------------|--------------|--------------|--5-----------|--------------|--
D|--------------|--------------|--------------|--------------|--------------|--------------|--------------|--------------|--
A|--0--------0--|--------------|--------------|--------------|--0--------0--|-----0--------|--------------|--------------|--
D|--------------|--------------|--------------|--------------|--------------|--------------|--------------|--------------|--

Stave 8:

E|--------------|--------------|--------------|--0-----------|--------------|--1-----------|--4-----------|--4-----------|--
B|--------------|--3-----------|--------------|-----1--------|--------------|--------1-----|--------------|--------------|--
G|--------------|--------2-----|--------------|--------2-----|--------------|--------------|--------------|--------------|--
D|--0--------0--|-----0--------|--2--------2--|--------------|--3--------3--|-----3--------|--2-----------|--------------|--
A|--------------|--------------|--------------|--------------|--------------|--------------|--------------|--------------|--
D|--------------|--------------|--------------|--------------|--------------|--------------|--------------|--------------|--

Stave 9:

E|--5-----------|--5-----------|--7-----------|--7-----------|--8------------|--8------------|--10------------|--10------------|--
B|--------------|--------------|--------------|--------------|---------------|---------------|----------------|----------------|--
G|--------------|--------------|--------------|--------------|---------------|---------------|----------------|----------------|--
D|--7-----------|--------------|--9--------9--|-----9--------|-----10--------|-----10--------|--12--------12--|------12--------|--
A|--------------|--------------|--------------|--------------|---------------|---------------|----------------|----------------|--
D|--------------|--------------|--------------|--------------|---------------|---------------|----------------|----------------|--

Stave 10:

E|--12-----13--12--|--------13--12--|--10-----------|---------------|---------------|--------------|---------------|--------------|--
B|-----------------|----------------|---------------|---------------|---------------|--------------|--10-----------|--------------|--
G|-----------------|----------------|---------------|--------9--12--|--14-----------|--------------|---------------|--------------|--
D|-----------------|----------------|---------------|---------------|---------------|--------------|---------------|--------------|--
A|--12-------------|----------------|--10-----------|---------------|---------------|--------------|---------------|--------------|--
D|-----------------|----------------|---------------|---------------|--14-----------|--------------|--10-----------|--------------|--

Stave 11:

E|--8------------|--
B|--9------------|--
G|--10-----------|--
D|--10-----------|--
A|---------------|--
D|---------------|--

http://www.guitartabcreator.com
Guitar Tab Creator is intended to store guitar tab created through the tool. It currently does not support in-line text editing. Any text you place in here will be lost. If you need to comment on your tab, please use the "Tab Notes" section located below.