Sound will begin in 5 seconds

Composition Bassline

01234567891011121314151617181920212223
E
B
G
D
A
E
B
0 1 2 3 4 5 6 7 8 9 10 11 12 13 14 15 16 17 18 19 20 21 22 23
Song Science #1: How Pros Use 6 Chords to Write Hit Songs
(/) Slide Up  (\) Slide Down  (h) Hammer On  (p) Pull Off  (b) Bend (r) Release (v) Vibrato

Stave 1:

G|---------------------------------3-3-3-3-3-3-3-3-----------------
D|-------------------------------------------------5-5-5-5-5-5-5-5-
A|-5-5-5-5-5-5-5-5-3-3-3-3-3-3-3-3---------------------------------
E|-----------------------------------------------------------------

Stave 2:

G|---------------10-10-10-10-10-10-10-7-7-7-7-7-7-7-5-5-5-5-5-5h6-
D|-7-7-7-7-7-7-7--------------------------------------------------
A|----------------------------------------------------------------
E|----------------------------------------------------------------

Stave 3:

G|---------------10-10-10-10-10-10-10-7-7-7-7-7-7-7-9-9-9-9-9-9p7-
D|-7-7-7-7-7-7-7--------------------------------------------------
A|----------------------------------------------------------------
E|----------------------------------------------------------------

Stave 4:

G|-2-2-2-2-2-2-2-4-5-5-5-5-5-5-5-------------------------------
D|-------------------------------5-3-3-3-3-3-3-3-2-2-2-2-2-2-2-
A|-------------------------------------------------------------
E|-------------------------------------------------------------

Stave 5:

G|-------------------------------------------------------------------
D|-8-8-8-8-8-8-8h10-6-6-6-6-6-6-6h8----------------------------------
A|----------------------------------6-6-6-6-6-6-6h8-8-8-8-8-8-8-8h10-
E|-------------------------------------------------------------------

Stave 6:

G|-----------------------------------------------------------------
D|---------------------------------5-5-5-5-5-5-5-5-----------------
A|-------------------------------------------------7-7-7-7-7-7-7-7-
E|-7-7-7-7-7-7-7-7-5-5-5-5-5-5-5-5---------------------------------

Stave 7:

G|------------------------------------------------------------------
D|---------------12-12-12-12-12-12-12-9-9-9-9-9-9-9-7-7-7-7-7-7-7h8-
A|-9-9-9-9-9-9-9----------------------------------------------------
E|------------------------------------------------------------------

Stave 8:

G|-------------------------------------------------------------------------
D|---------------12-12-12-12-12-12-12-9-9-9-9-9-9-9-11-11-11-11-11-11-11p9-
A|-9-9-9-9-9-9-9-----------------------------------------------------------
E|-------------------------------------------------------------------------

Stave 9:

G|-2-2-2-2-2-4-5-5-5-5-5-5---------------------------|-2-2-2-2-2-2-2-4-5-5-5-5-5-5-5-------------------
D|-------------------------5-3-3-3-3-3-3-2-2-2-2-2-2-|-------------------------------5-3-3-3-3-3-3-3-6-
A|---------------------------------------------------|-------------------------------------------------
E|---------------------------------------------------|-------------------------------------------------

http://www.guitartabcreator.com
Guitar Tab Creator is intended to store guitar tab created through the tool. It currently does not support in-line text editing. Any text you place in here will be lost. If you need to comment on your tab, please use the "Tab Notes" section located below.