Sound will begin in 5 seconds

Drag Me Down

01234567891011121314151617181920212223
E
B
G
D
A
E
B
0 1 2 3 4 5 6 7 8 9 10 11 12 13 14 15 16 17 18 19 20 21 22 23
Song Science #1: How Pros Use 6 Chords to Write Hit Songs
(/) Slide Up  (\) Slide Down  (h) Hammer On  (p) Pull Off  (b) Bend (r) Release (v) Vibrato

Capo Fret 1

Stave 1:

E|-------------------------------------------------------------------------
B|-------------------------------------------------------------------------
G|--4--4--4--4--7--4-----4--4--4--7--4-----4-----4--4--7--4-----4--2--2\0--
D|--------------------7-----------------7--------------------7-------------
A|-------------------------------------------------------------------------
E|-------------------------------------------------------------------------

Stave 2:

E|-------------------------------------------------------------------------------
B|-----7--7--7--5\3--3--3--0--3--3--3/7--------3--5/7--7--7--5--3--3p0--3/5\3p0--
G|--7----------------------------------------------------------------------------
D|-------------------------------------------------------------------------------
A|-------------------------------------------------------------------------------
E|-------------------------------------------------------------------------------

Stave 3:

E|---------------------------------------------------------------------
B|--3--7--7--7--5\3--3--3--0--3--3--3/7--------------------------------
G|---------------------------------------------4--7--7--6--6--6--4--4--
D|---------------------------------------------------------------------
A|---------------------------------------------------------------------
E|---------------------------------------------------------------------

Stave 4:

E|------------------------------------------------------
B|--------5h7-----------5h7--5p3h5--5--5--3--0--3--3/7--
G|--4--7-------4--4--7----------------------------------
D|------------------------------------------------------
A|------------------------------------------------------
E|------------------------------------------------------

Stave 5:

E|------------------------------------------------------
B|--------5h7-----------5h7--5p3h5--5--5--3--0--3/5--0--
G|--4--7-------4--4--7----------------------------------
D|------------------------------------------------------
A|------------------------------------------------------
E|------------------------------------------------------

Stave 6:

E|-------------------------------------------------------------------------
B|--7--7--7--5--5--7--5p3p0--3/5p0-----7--7--7--5--5--7--5p3p0--3--5b6--0--
G|-------------------------------------------------------------------------
D|-------------------------------------------------------------------------
A|-------------------------------------------------------------------------
E|-------------------------------------------------------------------------

http://www.guitartabcreator.com
Guitar Tab Creator is intended to store guitar tab created through the tool. It currently does not support in-line text editing. Any text you place in here will be lost. If you need to comment on your tab, please use the "Tab Notes" section located below.