Sound will begin in 5 seconds

Jumpin at the woodside

Chords
01234567891011121314151617181920212223
E
B
G
D
A
E
B
0 1 2 3 4 5 6 7 8 9 10 11 12 13 14 15 16 17 18 19 20 21 22 23
Song Science #1: How Pros Use 6 Chords to Write Hit Songs
(/) Slide Up  (\) Slide Down  (h) Hammer On  (p) Pull Off  (b) Bend (r) Release (v) Vibrato

Stave 1:

E|--------------------------------------------------------------------------------------------------
B|--------------------------------------------------------------------------------------------------
G|--------------------------------------------------------------------------------------------------
D|-----0--1--2--3--1--0--------0--1--2--3--1--0--------0--1--2--3--1--0--------0--1--2--3--1--0-----
A|--1--------------------3--1--------------------3--1--------------------3--1--------------------3--
E|--------------------------------------------------------------------------------------------------

Stave 2:

E|--------------------------------------------------------------------------------------
B|--------------------------------------------------------------------------------------
G|--------------------------------------------------------------------------------------
D|-----0-----1--2--3--1--0--------0--1--2--3--1--0--------0--1--2--3--1--0--------------
A|--1-----------------------3--1--------------------4--1--------------------3--1--2-----
E|-----------------------------------------------------------------------------------1--

Stave 3:

E|-----------------------------------------------------------------------------
B|-----------------------------------------------------------------------------
G|-----------------------------------------------------------------------------
D|-----0--1--2--3--1--0--------0--1--2--3--1--0--------0--1--2--3--1--0--------
A|--1--------------------3--1--------------------4--1--------------------3--1--
E|-----------------------------------------------------------------------------

Stave 4:

E|--------------------
B|--------------------
G|--------------------
D|-----5--------------
A|--5-----3-----------
E|-----------1--4--1--

Stave 5:

E|--------------------------------------------------------------------------------
B|--------------------------------------------------------------------------------
G|--------------------------------------------------------------------------------
D|-----0--1--2--3--1--0--------0--1--2--3--1--0--------0--1--2--3--1--0-----------
A|--1--------------------3--1--------------------4--1-----------------------3--1--
E|--------------------------------------------------------------------------------

Stave 6:

E|-----3--3--3--3--3--3-----3--3--3--4--3--3-----
B|-----3--3--3--3--3--3--5--3--3--4--1--4--3-----
G|-----3--3--3--3--3--3--3--3--3--2--3--2--3-----
D|-----3--3--3--3--3--3--5--3--3-----1-----3-----
A|-----1--1--1--1--1--1--4--1--1--3-----3--1-----
E|--1--1--1--1--1--1--1-----1--1-----------1-----

http://www.guitartabcreator.com
Guitar Tab Creator is intended to store guitar tab created through the tool. It currently does not support in-line text editing. Any text you place in here will be lost. If you need to comment on your tab, please use the "Tab Notes" section located below.