Chords 1

Chords

01234567891011121314151617181920212223
E
B
G
D
A
E
B
0 1 2 3 4 5 6 7 8 9 10 11 12 13 14 15 16 17 18 19 20 21 22 23
(/) Slide Up  (\) Slide Down  (h) Hammer On  (p) Pull Off  (b) Bend (r) Release (v) Vibrato

Stave 1:

E|--------------|--------------|-----------|-----------------------------
B|--------------|--------------|-----------|-----------------------------
G|--8-----------|--4-----------|--4--6--8--|--8--------------------------
D|--9-----------|--5-----------|--5--7--9--|--9--------------------------
A|--9-----------|--5-----------|--5--7--9--|--9--------------------------
E|--7-----------|--3-----------|--3--5--7--|--7--------------------------

Stave 2:

E|-----------
B|-----------
G|-----------
D|-----------
A|-----------
E|-----------

							http://www.guitartabcreator.com
Instruments
{"title":"Chords 1","strings":[[[".",".",".",".","|",".",".",".",".","|",".",".",".","|",".",".",".",".",".",".",".",".","."],[".",".",".",".","|",".",".",".",".","|",".",".",".","|",".",".",".",".",".",".",".",".","."],[8,".",".",".","|",4,".",".",".","|",4,6,8,"|",8,".",".",".",".",".",".",".","."],[9,".",".",".","|",5,".",".",".","|",5,7,9,"|",9,".",".",".",".",".",".",".","."],[9,".",".",".","|",5,".",".",".","|",5,7,9,"|",9,".",".",".",".",".",".",".","."],[7,".",".",".","|",3,".",".",".","|",3,5,7,"|",7,".",".",".",".",".",".",".","."]],[[".",".","."],[".",".","."],[".",".","."],[".",".","."],[".",".","."],[".",".","."]]],"numberofstrings":6,"notes":["E","B","G","D","A","E","B"],"capo":0,"stringnotes":["E4","B3","G3","D3","A2","E2"],"comments":["Stave 1:","Stave 2:"],"timing":[["W","W","W","W","W",null,null,"W",null,null,null,"W","W","W",null,null,null,null,null,null,null,null,null,"W",null,"W","W"],[null,null,null,"W"]],"timingvisible":false,"tabcounter":23,"stave":0,"totalstaves":2,"instrument":"6guitar","selectedtuning":"6_standard","version":"13"}

Member for

1 year 6 months
Submitted by apenguin360 on Tue, 2019-03-26 12:08