Sound will begin in 5 seconds

Everyboy's Starry Eyed

01234567891011121314151617181920212223
E
B
G
D
A
E
B
0 1 2 3 4 5 6 7 8 9 10 11 12 13 14 15 16 17 18 19 20 21 22 23
Song Science #1: How Pros Use 6 Chords to Write Hit Songs
(/) Slide Up  (\) Slide Down  (h) Hammer On  (p) Pull Off  (b) Bend (r) Release (v) Vibrato

(W|WW) Whole (H|HH) Half (Q|QQ) Quarter (E|EE) 8th (S|SS) 16th (T|TT) 32nd (X|XX) 64th

Stave 1:
t: W W W W W W WW
E|---2-6-7-----10-
B|-----------9----
G|-4-------8------
D|----------------
A|----------------
E|----------------

Stave 2:
t: W W W W W
E|-------4-3-
B|---2-2-----
G|-3---------
D|-----------
A|-----------
E|-----------

Stave 3:
t: WW WW WW WW WW WW WW WW
E|----18----------20-------
B|----------17-19----21-20-
G|-16----18----------------
D|-------------------------
A|-------------------------
E|-------------------------

Stave 4:
t: WW WW WW WW WW WW WW WW WW
E|----------------------------
B|----------------------------
G|----------------------------
D|----------------------13-13-
A|-16-------------------------
E|----17-17-17-17-15-15-------

http://www.guitartabcreator.com
Guitar Tab Creator is intended to store guitar tab created through the tool. It currently does not support in-line text editing. Any text you place in here will be lost. If you need to comment on your tab, please use the "Tab Notes" section located below.