Sound will begin in 5 seconds

spirit

01234567891011121314151617181920212223
E
B
G
D
A
E
B
0 1 2 3 4 5 6 7 8 9 10 11 12 13 14 15 16 17 18 19 20 21 22 23
Song Science #1: How Pros Use 6 Chords to Write Hit Songs
(/) Slide Up  (\) Slide Down  (h) Hammer On  (p) Pull Off  (b) Bend (r) Release (v) Vibrato

Stave 1:

E|---------------------------------
B|---------1---------------1-------
G|-----2-------2-------2-------2---
D|---2---2---2---2---2---2---2---2-
A|-0---------------0---------------
E|---------------------------------

Stave 2:

E|---------------------------------
B|---------1---------------1-------
G|-----0-------0-------0-------0---
D|---2---2---2---2---2---2---2---2-
A|-3---------------3---------------
E|---------------------------------

Stave 3:

E|---------------------------------
B|---------------------------------
G|-----0---4---0-------0---4---0---
D|---0---0---0---0---0---0---0---0-
A|-2---------------2---------------
E|---------------------------------

Stave 4:

E|---------------------------------
B|---------------------------------
G|-----2---2---2-------2---2---2---
D|---2---2---2---2---2---2---2---2-
A|-0---------------0---------------
E|---------------------------------

Stave 5:

E|---------------------------------
B|---------------------------------
G|-----0---0---0-------0---0---0---
D|---2---2---2---2---2---2---2---2-
A|-3---------------3---------------
E|---------------------------------

Stave 6:

E|-------------------------------
B|-------------------------------
G|-----0---4---0-------0---4-3---
D|---0---0---0---0---0---0-----2-
A|-2---------------2-------------
E|-------------------------------

Stave 7:

E|---------------------------------
B|---------1h--------------1h------
G|-----2-------2-------2-------2---
D|---2---2---2---2---2---2---2---2-
A|-2---------------2---------------
E|---------------------------------

Stave 8:

E|-----------------------------------------------------------------
B|---------1h--------------1h------1h------1h------3h------1-------
G|-----0-------0-------0-------0-------0-------0-------0-------0---
D|---2---2---2---2---2---2---2---2---2---2---2---2---2---2---2---2-
A|-3---------------3-----------------------------------------------
E|-----------------------------------------------------------------

Stave 9:

E|------------------------------------------------------
B|----1h------1---------1-------3-------1-------0-------
G|--------0-------0---------0-------0-------0-------0---
D|------2---2---2---2-----2---2---2---2---2---2---2---2-
A|--3-----------------2---------------------------------
E|------------------------------------------------------

Stave 10:

E|----------------------------------------------------------------------
B|----0-------1-------3-------1---------0-------1-------3-------1-------
G|--------2-------2-------2-------2---------2-------2-------2-------2---
D|------2---2---2---2---2---2---2---2-----2---2---2---2---2---2---2---2-
A|--0---------------------------------3---------------------------------
E|----------------------------------------------------------------------

Stave 11:

E|------------------------------------
B|----1-------3-------1-------0-------
G|--------2-------2-------2-------2---
D|------2---2---2---2---2---2---2---2-
A|--2---------------------------------
E|------------------------------------

Stave 12:

E|----------------------------------------------------------------------
B|----5-------3-------1-------0---------3-------1-------0-------1-------
G|--------2-------2-------2-------2---------2-------2-------2-------2---
D|------2---2---2---2---2---2---2---2-----2---2---2---2---2---2---2---2-
A|--3---------------------------------3---------------------------------
E|----------------------------------------------------------------------

Stave 13:

E|--------------------------------------------------------------------
B|----1-------1-------1h1-------1---------3-------3---------3h3-------
G|--------2-------2---------2-------2---------2-------2-----------2---
D|------2---2---2---2-----2---2---2---2-----2---2---2---2-------2---2-
A|--2-----------------------------------2-----------------2-----------
E|--------------------------------------------------------------------

Stave 14:

E|------------------------------
B|--1---------1h1-------1-------
G|------2-----------2-------2---
D|----2---2-------2---2---2---2-
A|----------2-------------------
E|------------------------------

Stave 15:

E|----------------------------------------------------------------------
B|----1-------3-------1-------0---------1-------3-------1-------0-------
G|--------2-------2-------2-------2---------2-------2-------2-------2---
D|------2---2---2---2---2---2---2---2-----2---2---2---2---2---2---2---2-
A|--0---------------------------------3---------------------------------
E|----------------------------------------------------------------------

Stave 16:

E|--------------------------------------
B|----0-------1-------3---------1-------
G|--------2-------2-------2---------2---
D|------2---2---2---2---2---2-----2---2-
A|--2-------------------------2---------
E|--------------------------------------

Stave 17:

E|------------------------------------------------------------------------
B|----1-------1---------1-------1---------1-------3-------1-------0-------
G|--------2-------2---------2-------2---------2-------2-------2-------2---
D|------2---2---2---2-----2---2---2---2-----2---2---2---2---2---2---2---2-
A|--0-----------------3-----------------2---------------------------------
E|------------------------------------------------------------------------

Stave 18:

E|------------------------------------------------------
B|----1-------1-------1h1-------1-------1-------1-------
G|--------2-------2---------2-------2-------2-------2---
D|------2---2---2---2-----2---2---2---2---2---2---2---2-
A|--0---------------------------------------------------
E|------------------------------------------------------

Stave 19:

E|----0-----------------------0---------0-------------------------------
B|------------3-------1-------------------------3-------1-------0-------
G|--------2-------2-------2-------2---------0-------0-------0-------0---
D|------2---2---2---2---2---2---2---2-----2---2---2---2---2---2---2---2-
A|--0---------------------------------3---------------------------------
E|----------------------------------------------------------------------

Stave 20:

E|----0-----------------------------------------------------------------
B|------------0-------1-------3---------0-------1-------3-------1-------
G|--------0-------0-------0-------0---------2-------2-------2-------2---
D|------0---0---0---0---0---0---0---0-----2---2---2---2---2---2---2---2-
A|--2---------------------------------0---------------------------------
E|----------------------------------------------------------------------

Stave 21:

E|----0-----------------------------------------------------------------
B|------------3-------1-------0---------0-------1-------3-------1-------
G|--------0-------0-------0-------0---------2-------2-------2-------2---
D|------0---0---0---0---0---0---0---0-----2---2---2---2---2---2---2---2-
A|--3---------------------------------0---------------------------------
E|----------------------------------------------------------------------

Stave 22:

E|------------------------------------------------------------------
B|----------1---------------1---------------1-------3-------1-------
G|------0-------0-------0-------0-------2-------2-------2-------2---
D|----2---2---2---2---0---0---0---0---2---2---2---2---2---2---2---2-
A|--3---------------2---------------0-------------------------------
E|------------------------------------------------------------------

Stave 23:

E|------------------------------------------------------------------------
B|----------1---------------1h1---------------1---------1h1-------1-------
G|------0-------0-------0---------0-------0-------0-----------0-------0---
D|----2---2---2---2---2---2-----2---2---0---0---0---0-------0---0---0---0-
A|--3---------------3-----------------2---------------2-------------------
E|------------------------------------------------------------------------

Stave 24:

E|----------------------------------------------------------------------
B|----5-------3-------1-------0---------3-------1-------0-------1-------
G|--------0-------0-------0-------0---------0-------0-------0-------0---
D|------0---0---0---0---0---0---0---0-----0---0---0---0---0---0---0---0-
A|--3---------------------------------3---------------------------------
E|----------------------------------------------------------------------

Stave 25:

E|--------------------------------------------------------------------------
B|----1\3-------1-------0-------1---------3\5-------3-------1-------0-------
G|----------0-------0-------0-------0-----------0-------0-------0-------0---
D|--------0---0---0---0---0---0---0---0-------0---0---0---0---0---0---0---0-
A|--0-----------------------------------0-----------------------------------
E|--------------------------------------------------------------------------

Stave 26:

E|----------------------------
B|----3-------1-------0-------
G|--------0-------0-------0---
D|------0---0---0---0---0---0-
A|--2-------------------------
E|----------------------------

Stave 27:

E|----------------------------------------------------------------------
B|----1-------1---------1-------1---------------1---------------1-------
G|--------2-------2---------2-------2-------2-------2-------2-------2---
D|------2---2---2---2-----2---2---2---2---2---2---2---2---2---2---2---2-
A|--0-----------------3-----------------2---------------2---------------
E|----------------------------------------------------------------------

Stave 28:

E|------------------------------------
B|----------1-------1-------1-------1-
G|------2-------2-------2-------2-----
D|----2---2---2---2---2---2---2---2---
A|--2---------------------------------
E|------------------------------------

Stave 29:

E|----0---------------------------------0-------------------------------
B|------------3-------1-------0-----------------3-------1-------0-------
G|--------2-------2-------2-------2---------0-------0-------0-------0---
D|------2---2---2---2---2---2---2---2-----2---2---2---2---2---2---2---2-
A|--0---------------------------------3---------------------------------
E|----------------------------------------------------------------------

Stave 30:

E|----------------------------------------------------------------------
B|----0-------1-------3-------1---------0-------1-------3-------1-------
G|--------0-------0-------0-------0---------2-------2-------2-------2---
D|------0---0---0---0---0---0---0---0-----2---2---2---2---2---2---2---2-
A|--2---------------------------------0---------------------------------
E|----------------------------------------------------------------------

Stave 31:

E|--------------------------------------------------------------------------
B|----3-------1-------0-------1---------1-------1---------1h1-------1-------
G|--------0-------0-------0-------0---------0-------0-----------0-------0---
D|------0---0---0---0---0---0---0---0-----0---0---0---0-------0---0---0---0-
A|--3---------------------------------2-----------------2-------------------
E|--------------------------------------------------------------------------

Stave 32:

E|--------------------------------------------------0-|-----------0-
B|----------1---------------1-------1-------1---------|---------1---
G|------2-------2-------0-------0-------0-------0-----|-------0-----
D|----2---2---2---2---2---2---2---2---2---2---2---2---|-----2-------
A|--0---------------3---------------------------------|---3---------
E|----------------------------------------------------|-0-----------

http://www.guitartabcreator.com
Guitar Tab Creator is intended to store guitar tab created through the tool. It currently does not support in-line text editing. Any text you place in here will be lost. If you need to comment on your tab, please use the "Tab Notes" section located below.